Oops, an error
Loading. Please wait.

Take Good Care Of My Baby bass

version 1
version 1

Whole song

Interactive

by Smokie
2,091 views 3 this week
no commentswrite comment
1 2 3 4 5
x 3
add to favorites
×
Save as Personal and add changes to this tab that will be seen only by you. Learn more ›
×
You can save this tab as Personal to edit and correct it or add notes. All changes will be seen only by you. Learn more »
launch autoscroll
font size
0
reset
guitar tuner
edit
Autoscroll
slow
fast
+/-
esc
set tempo
stop
Author
Difficulty
Take Good Care Of My Baby
I've taken this from the original recording from 1980 
with Chris Norman on lead vocal. 
Great version with the key change ~ note the pause dot 
over the F note.  The outro I've altered slighty at 
the as it sounds better on stage. Any comments email me at:bass254@btinternet.com

Intro: (first bit spoken no bass)

G-------------------------------------------------------------------|
D------------------------------------------------------------44-66--|
A--------------5------7----------------------4---5-55-6-7--77-------|
E--5-----2--------------00-22-44---5-05-4-2-2--2--------------------|

Verse 1:
G--------------------------------------------------------------------|
D--7-77-6-4---4--------------44-66--7-77-6-4--4---------------44-66--|
A------------4-4-5-55-6-7--77----------------4-4-5-55-6-7---77-------|
E--------------------------------------------------------------------|

G---------------------------------------------------------------|
D--7-77---7-77/---0-00---0-00---7-77-6-4-44--------------44-66--|
A------------------------------------------7-5-55-6-7--77-------|
E---------------------------------------------------------------|

Verse 2:
G--------------------------------------------------------------------|
D--7-77-6-4---4--------------44-66--7-77-6-4--4---------------44-66--|
A------------4-4-5-55-6-7--77----------------4-4-5-55-6-7---77-------|
E--------------------------------------------------------------------|

G----------------------------------------------------------|
D--7-77---7-77/---0-00---0-00---7-77---------7-77-77--7-7--|
A-----------------------------------7-5--5-77----------7---|
E----------------------------------------------------------|

Bridge:
G----------------------------------------------------------|
D---------------------------------2-22---------------------|
A--5-55-6-7-77---------------2-22-------4---------2-----7--|
E--------------5-55--4--2-22-----------------2-------------|

Verse 3:
G--------------------------------------------------------------------|
D--7-77-6-4---4--------------44-66--7-77-6-4--4---------------44-66--|
A------------4-4-5-55-6-7--77----------------4-4-5-55-6-7---77-------|
E--------------------------------------------------------------------|
                                             (Key Change).
G--------------------------------------------------------------------|
D--7-77--7-77/--0-00--0-00--7-77-6-4-44------------7--777------78-10-|
A--------------------------------------7-5-55--7-77------8-8-10------|
E--------------------------------------------------------------------|

Verse 4:
G--------------------------------------------------------------------|
D-8-88-7-5-55----------------55-77---8-88-7-5-55---------------55-77-|
A------------5-6-66-7-8---88--------------------5-6-66-7-8---88------|
E--------------------------------------------------------------------|

G----------------------------------------------------------|
D--8-88---8-88/---1-11---1-11----8-88-7-5-55---------------|
A-------------------------------------------5-6-66-7-8-88--|
E----------------------------------------------------------|

Outro: (Repeat to fade)
G---------------------------------|
D-8-88-7-5-55---------------55-77-|
A--------------6-66-7-8---88------|
E---------------------------------|

            
            
Suggest correction
Creating personal tab
Creating personal tab
You can edit any tab online and save it as your Personal.

You can edit, replace or remove any tab part or add personal notes – all changes will be seen only by you.

Personal tabs can be accessed anytime from any device, even offline.
Learn more »
Give kudos to tab author, rate the tab!
1 2 3 4 5
comments
print report bad tab
guest
You may want to rate the tab now too:
select rating
Wanna post a correction for this tab? Suggest correction