Oops, an error
Loading. Please wait.

Mrs You And Me Chords

version 2
version 2

Whole song

  • Based on the recorded version appearing on their a... Show more
7 views 1 this week
no commentswrite comment
1 2 3 4 5
3 more votes to show rating
add to favorites
launch autoscroll
font size
0
reset
transpose
0
reset
display chords
guitar tuner
Autoscroll
slow
fast
+/-
esc
set tempo
stop
Help us to improve Ultimate-Guitar.com Take our survey!
×
Author
Difficulty
novice
About this tab version
Based on the recorded version appearing on their album, "Born To Quit". Includes intro riff used throughout and solo. Was this info helpful? Yes No
[Intro]

e|-----------333333-----------33333-000-222----|
B|-----------000000-----------00000-111-333----|
G|-----------000000-----------00000-000-222----|
D|-5h4---5-0-000000-5h4---5-0-00000-222-000----|
A|----5/9----222222----5/9----22222-333--------|
E|-----------333333-----------33333------------|


[Verse]
 G                  C            D
I'm thinking about asking you to be
 C           D
Mrs. You and Me
 G                 C              D
I'm taking my time trying to find out
 C             D
If there's any doubt

[Chorus]
      Em            F
They say, we're too young
      G                              C
But I never listen to what I've been told
        Em           F               G
And I'd rather be to young, than too old
   B              Em A
To feel the way I do about you

[Intro]

e|-----------333333-----------33333-000-222----|
B|-----------000000-----------00000-111-333----|
G|-----------000000-----------00000-000-222----|
D|-5h4---5-0-000000-5h4---5-0-00000-222-000----|
A|----5/9----222222----5/9----22222-333--------|
E|-----------333333-----------33333------------|

[Verse]
 G                C               D
I'm taking a long look at all the pain
 C                  D
Life with you might bring
 G                C              D
I'm taking a good look inside my heart
C                    D
I think I'm ready to start

[Chorus]
 Em                 F
Today, could be the day
        G                                C
But I'm waiting for the perfect time and place
        Em                     F         G
And I'm scared, what you might say baby, please
B                    Em      A 
Please don't turn me away, I need you

[Intro]

e|-----------333333-----------33333-000-222----|
B|-----------000000-----------00000-111-333----|
G|-----------000000-----------00000-000-222----|
D|-5h4---5-0-000000-5h4---5-0-00000-222-000----|
A|----5/9----222222----5/9----22222-333--------|
E|-----------333333-----------33333------------|

G C D C D 
G C D C D 

 [Solo]
e|----------------------------------------------|
B|----------------------------------------------|
G|-------------5-4--------5-4-------------------|
D|---------5/7-----7-5--------7-5---------------|
A|-2-2-3-5-------------5~---------7-5~-7-5-7-5--|
E|----------------------------------------------|

e|---------------------------------------------------------|
B|---------------------------------------------------------|
G|-------------5-4-----------------5-4---------------------|
D|---------5/7-----7-5-----------------7-5-----------------|
A|-2-2-3-5-------------5~-7-5-7-5~---------7-5~-2-3-5-5/7~-|
E|---------------------------------------------------------|

[Chorus]
     Em             F
They say, we're too young
      G                              C
But I never listen to what I've been told
        Em           F               G
And I'd rather be to young, than too old
   B              Em A
To feel the way I do about you

[Intro]

e|-----------333333-----------33333-000-222----|
B|-----------000000-----------00000-111-333----|
G|-----------000000-----------00000-000-222----|
D|-5h4---5-0-000000-5h4---5-0-00000-222-000----|
A|----5/9----222222----5/9----22222-333--------|
E|-----------333333-----------33333------------|

[Outro]

 G                 C             D
I'm thinking about asking you to be
 C           D
Mrs. You and Me (Mrs. You and Me)
 C           D
Mrs. You and Me (Mrs. You and Me)
 C           D
Mrs. You and Me (Mrs. You and Me)
 C           D
Mrs. You and Me (Mrs. You and Me)
 C           D
Mrs. You and Me (Mrs. You and Me)
 C           D
Mrs. You and Me (Mrs. You and Me)



************************************

| h  Hammer-on
| /  Slide up
| ~  Vibrato

************************************
Suggest correction
Give kudos to tab author, rate the tab!
1 2 3 4 5
comments
print report bad tab
guest
You may want to rate the tab now too:
select rating
Wanna post a correction for this tab? Suggest correction