Oops, an error
Loading. Please wait.

Solid Ug Lawas Tab

version 1
version 1

Whole song

4,112 views 9 this week
2 commentsread comments
1 2 3 4 5
x 4
add to favorites
launch autoscroll
font size
0
reset
how to read this tab
guitar tuner
Autoscroll
slow
fast
+/-
esc
set tempo
stop
Help us to improve Ultimate-Guitar.com Take our survey!
×
Author
(local artist)
Artist: smooth friction 
Song: solid ug lawas
tabbed by: tonskie elsisura®
standard tuning
first tym pa ni nku himu ug tab,pero sakto lagi ni..hehe local muzik rules!!!

^ bend
/ slide 
Intro (distort)2x
|-------------------------------------------------------------------|
|-------------------------------------------------------------------|
|-------5---4---4-4-----5---4---5-5-----5---4---5---7---5---4---5---|
|---------5---5-----3-3---3---3-----0-0---0---0---0---0---0---0-----|
|-------------------------------------------------------------------|
|--5-5--------------------------------------------------------------|

higher part(2x)
|-------------------------------------------------------------------|
|------6---5---6-6-----6---5---6-6-----6---5---6---8^--6---5--6-----|
|-------------------------------------------------------------------|
|--7-7---7---7---------------------0-0---0---0---0---0---0--0-------|
|------------------8-8---8---8--------------------------------------|
|-------------------------------------------------------------------|
  
VERSE-paminawa nlang sa kanta para masubay nin.u
|-------------------------------------|
|-------------------------------------|
|--------- -77-x-777-7^---------------|
|--77-x-33--77-x-777-7^---------------|
|--77-x-33--55-x-555-5^---------------|
|--55-x-11----------------------------|
nanuktok ko sa inyuha, pirting daku.a.......

|------------------------------------------|
|------------------------------------------|
|----------------7^------555-----4/5/4-----|
|--777777-x-333--7^--333-555-333-4/5/4-----|
|--777777-x-333--5^--333-333-333-2/3/2-----|
|--555555-x-111------111-----111-----------|


CHORUS- balik2a lang. basta paminawa nalang nin.u ang kanta..
|-------------------------------------------|
|-------------------------------------------|
|--5555555--555555--------------------------|
|--5555555--555555-33333333-----------------|
|--3333333--222222-33333333-----------------|
|------------------11111111-----------------|
    wooh...   gibuhat na nako ang tanan..

|-----------------------------------------------------|
|-----------------------------------------------------|
|--5555555--555555------------------------ 55555------|
|--5555555--555555-33333333--6666666666-xx-55555-333--|
|--3333333--222222-33333333--6666666666-xx-33333-333--|
|------------------11111111--4444444444-xx-------111--|
  wooh.....     kay ad2 ra jd ka, sa inyong boy.. nga solid ug lawas!

repeat intro until end.. dats it! 
for comments & suggestions, email me @ linkinbizkit_mg@yahoo.com or in friendster,
tonskie_gwapo@hotmail.com.. user search lang..Ü
Suggest correction
comments
print report bad tab
2 comments total.
-1 reply
jezrelmarvin 130 Jan 16, 2006 02:24 AM

sa tan-aw nko saup man.. pro pnaagi ani imong tab nakuha nako ang saktong riff.... thnx.... ok ra imong tab......

+1 reply
phyro 10 Mar 06, 2006 12:48 AM

murag kulang... ah basta salamat

guest
You may want to rate the tab now too:
select rating
Wanna post a correction for this tab? Suggest correction