Oops, an error
Loading. Please wait.

Grits bass

by SMV
6,733 views 3 this week
no commentswrite comment
1 2 3 4 5
1 last vote to show rating
add to favorites
×
Save as Personal and add changes to this tab that will be seen only by you. Learn more ›
×
You can save this tab as Personal to edit and correct it or add notes. All changes will be seen only by you. Learn more »
launch autoscroll
font size
0
reset
guitar tuner
edit
Autoscroll
slow
fast
+/-
esc
set tempo
stop
Author
-------------------------------------------------------------------------------
			     Grits - SMV
-------------------------------------------------------------------------------

Tabbed By : timebomb219
e-mail: anarotsky219@yahoo.com

SMV - Stanley Clarke, Marcus Miller, Victor Wooten.
Due to the sheer oddity and novelty of three basses playing at once obviously this is 
the entire song with all the parts. But this is however, the main melody from what I can gather.

Grits is a song from their debut CD, Thunder, for which they are on a supporting tour. 
seen them, I highly recommend it. The recording just doesn't do them justice.

They slap or pop pretty much every note.
http://www.youtube.com/watch?v=HHbnPOgFYQk
Tuning: Standard EADG


G|-----------0--------------------------|
D|---------1----3-1---------------------|
A|-----3-3----------3--1-1-h3~-(1-1-h3~)|
E|--------------------------------------|

G|-----------0--------------------------|
D|---------1----3-1---------------------|
A|-----3-3---------3--4-4-h6~-(4-4-h6~)-|
E|--------------------------------------|

G|-----------0---------------0-3-2------|
D|---------1----3-1------1-1-------3--1~|
A|-----3-3----------3-------------------|
E|--------------------------------------|

G|-----------0--------------------------|
D|---------1----3-1---------------------|
A|-----3-3----------3--1-1-h3~-(1-1-h3~)|
E|--------------------------------------|

That's the main idea. Have fun!

OFFICIAL WEBSITE:
http://www.smvmusic.com/

| /  slide up
| \  slide down
| h  hammer-on
| p  pull-off
| ~  vibrato
| +  harmonic
| x  Mute note
===============================================================================

            
            
Suggest correction
Creating personal tab
Creating personal tab
You can edit any tab online and save it as your Personal.

You can edit, replace or remove any tab part or add personal notes – all changes will be seen only by you.

Personal tabs can be accessed anytime from any device, even offline.
Learn more »
Give kudos to tab author, rate the tab!
1 2 3 4 5
comments
print report bad tab
guest
You may want to rate the tab now too:
select rating
Wanna post a correction for this tab? Suggest correction