Oops, an error
Loading. Please wait.

Equis Bass

by Snake
54 views 1 this week
no commentswrite comment
1 2 3 4 5
3 more votes to show rating
add to favorites
launch autoscroll
font size
0
reset
guitar tuner
×
Best way to learn
"Equis"
Autoscroll
slow
fast
+/-
esc
set tempo
stop
EQUIS


INTRO


F--------------7--------------------
C---------7h9-----------------------
G-----7h9---------------------------
D-0-0-------------------------------

PARTE DE SLAPING (Solo dos palabras...)

F--------------9-9-9------------------
C---9---9-----------------------------
G------------7-------0----------------
D-7---7-------------------------------


COROS

F-------------------------------------
C-------------------------------------
G------------------6666666666666666---
D-7777777777777777--------------------

En la parte que dice ... que te toco  vos y a tus demonios...

F--------------------------------------
C-------------5------------------------
G--6--4-----3---3---2-2-2-2---4--2-1---
D--------------------------------------
Suggest correction
Give kudos to tab author, rate the tab!
1 2 3 4 5
comments
print report bad tab
guest
You may want to rate the tab now too:
select rating
Wanna post a correction for this tab? Suggest correction