Oops, an error
Loading. Please wait.

Suicida Bass Tab

22 views 1 this week
no commentswrite comment
1 2 3 4 5
3 more votes to show rating
add to favorites
launch autoscroll
font size
0
reset
guitar tuner
×
Best way to learn
"Suicida"
Autoscroll
slow
fast
+/-
esc
set tempo
stop
Bueno, aca va el bajo de este tema, espero que les suene bien.
Primer tab que subo, asi que vamo a ver que onda.

intro/ verso

G|-----17----------19----------17---------19----------17------|
D|---------15----------15----------15---------15----------15--|
A|-17----------17----------17----------17---------17----------|
E|------------------------------------------------------------|

G|---16----------17----------16----------17----------16-------|
D|--------14----------14----------14----------14----------14--|
A|15----------15----------15----------15----------15----------|
E|------------------------------------------------------------|

Puente

G|--------------------------------------------------|
D|--------------------------------------------------|
A|--5---5--5----5---5--5-------3---3--3----3---3--3-|     X2
E|----5-----------5---------1----3-----------3------|

Estribo

G|----------------------------------------------------|
D|----------------------------------------------------|
A|-------------3-5-5-3-5-5-3------------3-5-5-3-5-5-3-|   X2
E|-5-5-3-5-5-5---------------5-5-3-5-5-5--------------|

Intro/verso


Solo de bajo
                               parte del teclado
G|-7----------------------| |---------17------------------------|
D|------------12-11-10----| |-17--19------19--------------------|
A|----5----12-------------| |-----------------19-19----19-17-17-|
E|------------------------| |-----------------------20----------|

                            Vuelve el bajo
G|-17--19--19b--17--14--17-17-------------------------14/16------------|
D|-----------------------------14-------------14--17---------17--------|
A|---------------------------------15-----15---------------------15/17-|
E|---------------------------------------------------------------------|


Intro/verso

Estribo

*b: Bem, o como se llame, subis y bajas la cuerda una vez.

Al final, en la segunda parte del estribo,
le hace un slap chiquito 2 veces en D.
Bueno gente, cualquier consulta a las ordenes.
Aguante la musica; y nada!!!!
Suggest correction
Give kudos to tab author, rate the tab!
1 2 3 4 5
comments
print report bad tab
guest
You may want to rate the tab now too:
select rating
Wanna post a correction for this tab? Suggest correction