Oops, an error
Loading. Please wait.

Ya No Hay Tiempo Chords

by Snake
13 views 1 this week
no commentswrite comment
1 2 3 4 5
3 more votes to show rating
add to favorites
launch autoscroll
font size
0
reset
transpose
0
reset
display chords
guitar tuner
×
Best way to learn
"Ya No Hay Tiempo"
Autoscroll
slow
fast
+/-
esc
set tempo
stop
Intro:

e----------------------------------------------------------|
B-6-8b9b8-6-------6-8b9b8-6------3/6-5----5h6-5-3-3h5p3--0-|
G-----------7---------------6------------------------------|
D----------------------------------------------------------|
A----------------------------------------------------------|
E----------------------------------------------------------|

e----------------------------------------------------------|
B-6-8b9b8-6-------6-8b9b8-6------3/6-5----5h6-5-/-0--1-3~--|
G-----------7---------------6------------------------------|
D----------------------------------------------------------|
A----------------------------------------------------------|
E----------------------------------------------------------|

Dm                      G
Ya no hay tiempo para estar sufriendo
Dm                    G
ya no hay tiempo de seguir mintiendo
Dm                G               C
este ciclo que rompió el silencio hoy
                E
te quiere despertar.

Ya no creo en más vidas pintadas
ni en amores que nunca se cansan
ni en poder regresar al mismo lugar
y saber que vos vas a estar.

Ya no hay tiempo para estar perdiendo
ya no hay tiempo de seguir muriendo
en esos días de melancolía y sol y mar
que puedo ver y tocar.

C#m    A          B          C#m
       Tal vez me venga a buscar
                    A         B
       tal vez esté cerca del fín
C#m                  A        B          C#m
       vos sos mi amuleto, mi carcel, mi paz
                         A         B
       la guerra que hay dentro de mi.

Ya no hay tiempo de seguir huyendo
ya no hay tiempo para estar cayendo
en esas cosas que te llevan a un lugar
que vos ya no queres estar.

Tal vez me venga a buscar
tal vez esté cerca del fín
vos sos mi amuleto, mi carcel, mi paz
la guerra que hay dentro de mi.
Suggest correction
Give kudos to tab author, rate the tab!
1 2 3 4 5
comments
print report bad tab
guest
You may want to rate the tab now too:
select rating
Wanna post a correction for this tab? Suggest correction