Oops, an error
Loading. Please wait.

How Soon Is Now Tab

859 views 1 this week
no commentswrite comment
1 2 3 4 5
3 more votes to show rating
add to favorites
×
Save as Personal and add changes to this tab that will be seen only by you. Learn more ›
launch autoscroll
font size
0
reset
how to read this tab
guitar tuner
Autoscroll
slow
fast
+/-
esc
set tempo
stop
Snake River Conspiracy - How Soon Is Now?

Guitars solely do not play a huge part in the music of the fantastic
Snake River Conspiracy. Most of this song uses electronica, heavy bass FX,
etc. I'm in the process of trying to tab out the violin part where Tobey
sings 'Oh shut your mouth...' In the meantime, this'll have to do.


These are the main two riffs, played alternately during
'I am the son, I am the heir,of a shyness that is criminally vulgar,
I am son and heir of nothing in particular...'

Riff 1:
------------------------------------------------|
----------------------------------3-------------|
------3-/-4-/-3-/-4-/-3-/-4-------3----4--------|
------4-/-5-/-4-/-5-/-4-/-5-------3----4--------|
------4-/-5-/-4-/-5-/-4-/-5------------2--------|
------2-/-3-/-2-/-3-/-2-/-3---------------------|


Riff 2:
------------------------------------------|
----------------------------------3^------|
-----3-/-4-/-3-/-4-/-3-/-4----------------|
-----4-/-5-/-4-/-5-/-4-/-5----------------|
-----4-/-5-/-4-/-5-/-4-/-5----------------|
-----2-/-3-/-2-/-3-/-2-/-3----------------|

Tabbed by BaDKiTTie.
Corrections, rants, streams of foul language regarding this tab can be
 sent to jezekah_jinxd@hotmail.com. I thank you.
Suggest correction
Give kudos to tab author, rate the tab!
1 2 3 4 5
comments
print report bad tab
guest
You may want to rate the tab now too:
select rating
Wanna post a correction for this tab? Suggest correction