Oops, an error
Loading. Please wait.

What About Me tab

25,209 views 192 this week
4 commentsread comments
1 2 3 4 5
x 14
add to favorites
×
Save as Personal and add changes to this tab that will be seen only by you. Learn more ›
×
You can save this tab as Personal to edit and correct it or add notes. All changes will be seen only by you. Learn more »
launch autoscroll
font size
0
reset
how to read this tab
guitar tuner
edit
Autoscroll
slow
fast
+/-
esc
set tempo
stop
Author
Difficulty
-------------------------------------------------------------------------------
                             WHAT ABOUT ME? - Snarky Puppy
-------------------------------------------------------------------------------
Tabbed by: firebowl99
Tuning: Standard

Everything is here except for the solo and some of the rhythm guitar parts. Listen to the song for lining up
the rhythms. Enjoy!

[Intro] (0:00)

e|-----------------------------------------------------------------------------------------|
B|-7--5--3------------2--------7--5--3----------2--------7--5--3----------2--------2-2-----|
G|-0--0--0------------0--------0--0--0----------0--------0--0--0----------0--------0-0-----|
D|-9--7--5------------5--------9--7--5----------4--------9--7--5----------4--------4-4-----|
A|------------5h7--------5h7---------------5h7----5h7----------------5h7-----5h7-----------|
E|---------5h7----0---------0-----------5h7----------0--0---------5h7---0------------------|

e|----2-------4-------3------5------|
B|-3------5--------5------7---------|
G|-2------4--------5------7---------|
D|-5------4--------3------5---------|
A|----------------------------------|
E|----------------------------------|


(0:15)                                                           *Its a very slight bend*
e|---------------------------------------------------------------------------|
B|-15--14-12---12------------------------------------------------------------|
G|-----------------14---12-14/16--14-14----12---9-12-11-9------9----12b------|
D|--------------------14-----------------------9----------12-----12----------|
A|---------------------------------------------------------------------------|
E|---------------------------------------------------------------------------|

e|---------------------------------------------------------------------------|
B|-15--14-12---15b17rb--12----------------------10h12-10h12-10---------------|
G|-------------------------12h14----12----9h12------------------9h11-9-------|
D|--------------------------------------9------------------------------------|
A|---------------------------------------------------------------------------|
E|---------------------------------------------------------------------------|

e|---------------------------------------------------------------------------|
B|-15--14-12---12------------------------------------------------------------|
G|-----------------14---12-14/16--14-14----12---9-12-11-9------9----12b------|
D|--------------------14-----------------------9----------12-----12----------|
A|---------------------------------------------------------------------------|
E|---------------------------------------------------------------------------|

e|---------------------------------------------------------------------------|
B|-15--14-12---15b17rb--12----------------------10h12-10h12-10---------------|
G|-------------------------12h14----12----9h12------------------9h11-9-------|
D|--------------------------------------9------------------------------------|
A|---------------------------------------------------------------------------|
E|---------------------------------------------------------------------------|


(0:45)
e|---------------------------------------------------------------------------------------|
B|---------------------------------------------------------------------------------------|
G|---------------------------------------------------------------------------------------|
D|-----------------------5-----------------------------------------------5----5----5-----|
A|-----5h7----5h7----5h7----5h7---------5---------5h7----5h7--------5h7----75---75---75--|
E|-0-------3------5-------------7---5h7---5h7--0------3------5--5h7----------7----7----7-|

e|-------------------------------------------------------------------------------------------------------|
B|-------------------------------------------------------------------------------------------------------|
G|-------------------------------------------------------------------------------------------------------|
D|-----------------------5-----------------------------------------------5-2-4-2---5-2-------------------|
A|-----5h7----5h7----5h7----5h7---------5---------5h7----5h7--------5h7----------5----2-0-5-2-0---0-2----|
E|-0-------3------5-------------7---5h7---5h7--0------3------5--5h7-----------------------------3-------0|


(1:00)
e|---------------------------------------------------------------------------|
B|-15--14-12---12------------------------------------------------------------|
G|-----------------14---12-14/16--14-14----12---9-12-11-9------9----12b------|
D|--------------------14-----------------------9----------12-----12----------|
A|---------------------------------------------------------------------------|
E|---------------------------------------------------------------------------|

e|---------------------------------------------------------------------------|
B|-15--14-12---15b17rb--12----------------------10h12-10h12-10---------------|
G|-------------------------12h14----12----9h12------------------9h11-9-------|
D|--------------------------------------9------------------------------------|
A|---------------------------------------------------------------------------|
E|---------------------------------------------------------------------------|

e|---------------------------------------------------------------------------|
B|-15--14-12---12------------------------------------------------------------|
G|-----------------14---12-14/16--14-14----12---9-12-11-9------9----12b------|
D|--------------------14-----------------------9----------12-----12----------|
A|---------------------------------------------------------------------------|
E|---------------------------------------------------------------------------|

e|---------------------------------------------------------------------------|
B|-15--14-12---15b17rb--12----------------------10h12-10h12-10---------------|
G|-------------------------12h14----12----9h12------------------9h11-9-------|
D|--------------------------------------9------------------------------------|
A|---------------------------------------------------------------------------|
E|---------------------------------------------------------------------------|


[Sax Solo] (1:29-1:40)


(1:41)
e|-------------------------------------------------------|
B|-3----3--3----3-3--3--3----3----3--3---3----3--5-------|
G|-2----3--3----2-2--3--3----2----3--3---2----3--5-------|
D|-2----3--3----2-2--3--3----2----3--3---0----3--5-------|
A|-2----3--3----2-2--3--3----2----3--3---2----3--5-------|
E|-------------------------------------------------------|


(1:49)
e|----------------7---------------------------------------------|
B|------------------10---8---8----------8-----------------------|
G|-11--7--9---7h9----------9---9--7h9-----9--7h9--8-7------7-9--|
D|--------------------------------------------------------------|
A|--------------------------------------------------------------|
E|--------------------------------------------------------------|

e|----------------7---------------------------------------------------|
B|------------------10---8---8----------8----------8---------8--------|
G|-11--7--9---7h9----------9---9--7h9-----9--7h9-----9--7h9----9--7h9-|
D|--------------------------------------------------------------------|
A|--------------------------------------------------------------------|
E|--------------------------------------------------------------------|


(2:45)
e|-----------10------------10h12--------------0--/-0--0/0---0--------|
B|-10h12---------------------------10---------10-/-7--7/8---8--------|
G|----------------------------------------------------------0--------|
D|-------------------------------------------------------------------|
A|-------------------------------------------------------------------|
E|-------------------------------------------------------------------|


(3:00)
e|----------------------------------------------10/9-----------------|
B|-10h12--11----12/10/8/7-------7---5--7-8-10------------------------|
G|------------------------4/5/7---7----------------------------------|
D|-------------------------------------------------------------------|
A|-------------------------------------------------------------------|
E|-------------------------------------------------------------------|


(3:10)
e|-10p9--7--9b10-----------------------------------------------------|
B|-------------------------------------------------------------------|
G|----------------11b12r---------------------------------------------|
D|-------------------------12b13r------------------------------------|
A|---------------------------------10b11r---7b8r--4b5r---------------|
E|------------------------------------------------------2b3r---------|


(3:20)
e|-------------------------------------------------------------------|
B|-------------------------------------------------------------------|
G|-14pbr12---11b12r--------------------------------------------------|
D|-------------------12b13r------------------------------------------|
A|----------------------------10b11r---7b8r--4b5r--------------------|
E|-------------------------------------------------2b3r--------------|

(3:29)
e|-10--10--12--12--15------15/17--------17----17----19----19----21----21-22-|
B|-12------15--14-------12--------12/15----15----17----17----17----17-------|
G|--------------------------------------------------------------------------|
D|--------------------------------------------------------------------------|
A|--------------------------------------------------------------------------|
E|--------------------------------------------------------------------------|


(3:44)
e|-22-22-22-22-22-22----22-22-22-22-22---19-21-21-21---19-20-21-17----17-18-19-15-|
B|-------------------22-----------------------------------------------------------|
G|--------------------------------------------------------------------------------|
D|--------------------------------------------------------------------------------|
A|--------------------------------------------------------------------------------|
E|--------------------------------------------------------------------------------|


[Post-Solo]
(4:42)
e|---------------------------------------0-0-0-----|
B|---------------------------------------0-3-2-----|
G|-------0-----------0---------------2---2-2-2-----|
D|-0h2h4---5---0h2h4-----------------2---2-2-2-----|
A|---------3-----------2----------2--0---0-0-0-----|
E|---------------------0----0h2h3------------------|

e|---------------------------------------0-0-0-----|
B|---------------------------------------0-3-2-----|
G|-------0-----------0---------------2---2-2-2-----|
D|-0h2h4---5---0h2h4-----------------2---2-2-2-----|
A|---------3-----------2----------2--0---0-0-0-----|
E|---------------------0----0h2h3------------------|

e|---------------------------------------0-0-0-0-0-0-0-0-|
B|---------------------------------------2-3-2-3-2-3-2-3-|
G|-------0-----------0---------------2---2-2-2-2-2-2-2-2-|
D|-0h2h4---5---0h2h4-----------------2---2-2-2-2-2-2-2-2-|
A|---------3-----------2----------2--0---0-0-0-0-0-0-0-0-|
E|---------------------0----0h2h3------------------------|


(4:58)
e|---------------------------------------------------------------------------------------|
B|---------------------------------------------------------------------------------------|
G|---------------------------------------------------------------------------------------|
D|-----------------------5-----------------------------------------------5----5----5-----|
A|-----5h7----5h7----5h7----5h7---------5---------5h7----5h7--------5h7----75---75---75--|
E|-0-------3------5-------------7---5h7---5h7--0------3------5--5h7----------7----7----7-|

e|----------------------------------------------------------------------------------------------|
B|----------------------------------------------------------------------------------------------|
G|----------------------------------------------------------------------------------------------|
D|-----------------------5-----------------------------------------------5----5----5----5-------|
A|-----5h7----5h7----5h7----5h7---------5---------5h7----5h7--------5h7----75---75---75---75----|
E|-0-------3------5-------------7---5h7---5h7--0------3------5--5h7----------7----7----7----7-0-|


[Synth/Drum Break]
(5:12-5:54)

(5:55)
e|---------------------------------------------------------------------------------------|
B|---------------------------------------------------------------------------------------|
G|---------------------------------------------------------------------------------------|
D|-----------------------5-----------------------------------------------5----5----5-----|
A|-----5h7----5h7----5h7----5h7---------5---------5h7----5h7--------5h7----75---75---75--|
E|-0-------3------5-------------7---5h7---5h7--0------3------5--5h7----------7----7----7-|

e|-------------------------------------------------------------------------------------------------------|
B|-------------------------------------------------------------------------------------------------------|
G|-------------------------------------------------------------------------------------------------------|
D|-----------------------5-----------------------------------------------5-2-4-2---5-2-------------------|
A|-----5h7----5h7----5h7----5h7---------5---------5h7----5h7--------5h7----------5----2-0-5-2-0---0-2----|
E|-0-------3------5-------------7---5h7---5h7--0------3------5--5h7-----------------------------3-------0|

e|-------------------------------------------------------------------|
B|-------------------------------------------------------------------|
G|-14-\-13-13-\-9-9-\-7-7----------7\6/7-----------------------------|
D|-xx-\-xx-xx-\-x-x-\-x-x----------x\x/x-----------------------------|
A|-12-\-11-11-\-7-7-\-5-5----------5\4/5-----------------------------|
E|-------------------------------------------------------------------|

************************************

| x    Dead note
| h    Hammer-on
| p    Pull-off
| r    Release
| b    Bend
| pbr  Pre-bend release
| /    Slide up
| \    Slide down

************************************
Suggest correction
Creating personal tab
Creating personal tab
You can edit any tab online and save it as your Personal.

You can edit, replace or remove any tab part or add personal notes – all changes will be seen only by you.

Personal tabs can be accessed anytime from any device, even offline.
Learn more »
comments
print report bad tab
4 comments total. Showing first comments.
+2 reply
andiloveher 34 Sep 01, 2015 09:41 PM

e|----2-------4----3-------3-------5|
B|-3------5--------1---5-------7----|
G|-2------4--------2---5-------7----|
D|-5------7------------3-------5----|
A|----------------------------------|
E|----------------------------------|

0 reply
flezem 385 Oct 12, 2015 07:20 AM

I this was a sauce it would be awesomesauce.

0 reply
oliverbowles1 20 May 17, 2016 10:53 AM

The fast break down is using a tricky fingering, there should be chords at the 1:00 mark, and it isn't complete

guest
You may want to rate the tab now too:
select rating
Wanna post a correction for this tab? Suggest correction