Oops, an error
Loading. Please wait.

Sick Tab

version 1
version 1

Whole song

3,051 views 6 this week
1 commentread comment
1 2 3 4 5
please rate
add to favorites
launch autoscroll
font size
0
reset
how to read this tab
guitar tuner
Tab Pro tools
  • play this tab
  • loop segment
  • change instrument
  • show fretboard
  • metronome
×
Best way to learn
"Sick"
Autoscroll
slow
fast
+/-
esc
set tempo
stop
Contributor
SNEAKER PIMPS - "SICK"

e|-----------------------------------------|
B|-----------------------------------------|
G|-----------------------------------------|
D|-12-x-x--9-x-x-9----11/--12/--5-x-x-5----|
A|-12-x-x--9-x-x-9-----9/--10/--5-x-x-5----|
E|-10-x-x--7-x-x-7-----9/--10/--3-x-x-3----|
   d  d u  d d u d     d   d    d d u d
(Strum Pattern)

The new album rulez...especially this song...
(meant to be played acoustic, but distorted sounds
pretty good)
comments
We did not receive enough feedback on this tab! Please rate:
print report bad tab
1 2 3 4 5
1 comment total.
0 reply
magicmedicine wrote on September 30 2002, 12:00 am

Sneaker Pimps
Sick

Standard Tuning

Intro

e---------------------------------
B---------------------------------
G--12---9----9--------------------
D---x---x----x---10--12---5-------
A--10---7----7---10--12---5-------
E----------------9---10---3-------

Chourus

e-----------------------------------
B-----------------------------------
G--5-5-----------5-5-/-7-7----------
D--5-5---5-5-----5-5-/-7-7---7-7----
A--3-3---5-5-----3-3-/-5-5---7-7----
E--------3-3-----------------5-5----

I want to post or [tab]
guest
You may want to rate the tab now too:
select rating
Please do not post tabs as comments. Select "correction" instead!