Oops, an error
Loading. Please wait.

Ufo Bass Tab

2,120 views 1 this week
no commentswrite comment
1 2 3 4 5
3 more votes to show rating
add to favorites
launch autoscroll
font size
0
reset
guitar tuner
Autoscroll
slow
fast
+/-
esc
set tempo
stop
Help us to improve Ultimate-Guitar.com Take our survey!
×
Author
Intro
G|------------------------------|
D|------------------------------|
A|---------5--575-0--0-0-0--032-|
E|-0--0-35------------3---------|

Verse
G|-----------------------------------|
D|-----------------------------------|
A|--------55555557-00000000-00000000-|
E|00000000---------------------------|

Pre-Chorus
G|----------------------------------------------------------------------|
D|----------------------------------------------------------------------|
A|--------55555555-77777777-77777777---------55555555-33333333-33333333-|
E|00000000---------------------------00000000---------------------------|

Chorus
G|------------------------------|
D|------------------------------|
A|---------5--575-0--0-0-0--032-|
E|-0--0-35------------3---------|

Bridge
G|---------|
D|---------|
A|---------|
E|00000000-|
hello.. hello.. hello.. hello...

Outro
G|------------------------------|
D|------------------------------|
A|---------5--575-0--0-0-0--032-|
E|-0--0-35------------3---------|

Order
Intro x4
Verse x4
Pre-chorus x1
Chorus x4
Verse x4
Chorus x4
Break
Bridge x8
Chorus x4
Outro x4


Foot Note:
during the break you can play an open E every now and again, but its just an option. 
this tab is very easy to add your own bits and pieces to, so have fun with it.
i am aware that my tab differs from the real chorus, however i think it sounds better 
the original chorus, and its only a little different (the real tab doesn't have the 032 at 
end) if you really want to play it normally:
G|----------------------------------|
D|----------------------------------|
A|---------5--575-0000-000-00000000-|
E|-0--0-35------------3-------------|
Suggest correction
Give kudos to tab author, rate the tab!
1 2 3 4 5
comments
print report bad tab
guest
You may want to rate the tab now too:
select rating
Wanna post a correction for this tab? Suggest correction