Oops, an error
Loading. Please wait.

Tha Shiznit Bass Tab

version 2
version 2

Whole song

1,061 views 9 this week
no commentswrite comment
1 2 3 4 5
excellent!
x 1
add to favorites
launch autoscroll
font size
0
reset
guitar tuner
Tab Pro tools
  • play this tab
  • loop segment
  • change instrument
  • show fretboard
  • metronome
Autoscroll
slow
fast
+/-
esc
set tempo
stop
Contributor
Here's another bass tab for Doggystyle album by Snoop Doggy Dogg, launched 1993.

Easier yet than the G-Funk Intro, the bass tabs goes like this:

G|--------------------------|
D|----4---4-5-----5---------|
A|------4-------5-----------|
E|--------------------------|


all the fucking while.

and then there are those little high-notes that aren't played by a bass, but still if 
you wanna do it here they are.

G|--18----18----17----17----16----16----14--------|
D|-----19----------18----------17-----------16----|
A|------------------------------------------------|
E|------------------------------------------------|


Here that was.
comments
We did not receive enough feedback on this tab! Please rate:
print report bad tab
1 2 3 4 5
I want to post or [tab]
guest
You may want to rate the tab now too:
select rating
Please do not post tabs as comments. Select "correction" instead!