Oops, an error
Loading. Please wait.

Tha Shiznit bass

version 2
version 2

Whole song

1,498 views 3 this week
2 commentsread comments
1 2 3 4 5
2 more votes to show rating
add to favorites
×
Save as Personal and add changes to this tab that will be seen only by you. Learn more ›
×
You can save this tab as Personal to edit and correct it or add notes. All changes will be seen only by you. Learn more »
launch autoscroll
font size
0
reset
guitar tuner
edit
Autoscroll
slow
fast
+/-
esc
set tempo
stop
Author
Here's another bass tab for Doggystyle album by Snoop Doggy Dogg, launched 1993.

Easier yet than the G-Funk Intro, the bass tabs goes like this:

G|--------------------------|
D|----4---4-5-----5---------|
A|------4-------5-----------|
E|--------------------------|


all the fucking while.

and then there are those little high-notes that aren't played by a bass, but still if 
you wanna do it here they are.

G|--18----18----17----17----16----16----14--------|
D|-----19----------18----------17-----------16----|
A|------------------------------------------------|
E|------------------------------------------------|


Here that was.

            
            
Suggest correction
Creating personal tab
Creating personal tab
You can edit any tab online and save it as your Personal.

You can edit, replace or remove any tab part or add personal notes – all changes will be seen only by you.

Personal tabs can be accessed anytime from any device, even offline.
Learn more »
Give kudos to tab author, rate the tab!
1 2 3 4 5
comments
print report bad tab
2 comments total.
0 reply
benmneb 195 Sep 11, 2016 10:47 AM

notes sound great. definitely sound like its played on a 5 string an octave lower though!

0 reply
benmneb 195 Sep 11, 2016 10:54 AM

actually playing with the song i think it sounds better a semi-tone lower! so:

G|--------------------------|
D|----3---3-4-----4---------|
A|------3-------4-----------|
E|--------------------------|

guest
You may want to rate the tab now too:
select rating
Wanna post a correction for this tab? Suggest correction