Oops, an error
Loading. Please wait.

Deadfall Tab

version 1
version 1

Whole song

Interactive

by Snot
4,658 views 3 this week
1 commentread comment
1 2 3 4 5
x 4
add to favorites
launch autoscroll
font size
0
reset
how to read this tab
guitar tuner
Autoscroll
slow
fast
+/-
esc
set tempo
stop
Help us to improve Ultimate-Guitar.com Take our survey!
×
#----------------------------------PLEASE NOTE--------------------------------#
#This file is the author's own work and represents their interpretation of the#
#song. You may only use this file for private study, scholarship, or research.#
#-----------------------------------------------------------------------------#
#-- File created with Instab - http://www.pconline.com/~smcarey/instab.html --#
#-----------------------------------------------------------------------------#

Author/Artist: Snot
Title: Deadfall
Transcribed by: Ben Hellings
Email: legionofben@ntlworld

Tuning: C#G#C#F#A#D#C#

-------------------------------|-------------------|--------------|-----------|
-------------------------------|-------------------|--------------|-----------|
-------------------------------|-------------------|--------------|-----------|
-------------------------------|-------------------|--------------|-----------|
-------------------------------|-------------------|--------------|-----------|
-0-3p0-5p0-0-6p0-0-5p0-3p0-5p0-|-0-3p0-5p0-0-6p0-0-|--------------|-----------|
 Riff 1           Play 3 times                       Riff1 3times

------------------------^-^-^-^-|----------------------------|----------------|
------------------------3-3-3-3-|----------------------------|----------------|
------------------------3-3-3-3-|--------------------------7-|----------------|
--------------------------------|-0---0-2---3-------5------7-|-0---0-2---3--0-|
--------------------------------|-0---0-2---3---0---5---0--5-|-0---0-2---3--0-|
--0-3p0-5p0-0-6p0-0-5p0---------|-0---0-2---3---0---5---0----|-0---0-2---3--0-|
                                        x      ( )     ( )           x     x

------------------------------------------------------|-----------------------|
------------------------------------------------------|-----------------------|
----------------------------------------------------7-|-----------------------|
----------------------------0---0-2---3------5------7-|-0--0-2---3--0---------|
-5p3---3-3-5p3---3-3-5p3----0---0-2---3--0---5---0--5-|-0--0-2---3--0---------|
-----7---------7---------7530---0-2---3--0---5---0----|-0--0-2---3--0---------|
 All muted                        x                          x      x

-----------------------------|--------------|---------------------------------|
-----------------------------|--------------|---------------------------------|
-----------------------------|--------------|---------------------------------|
-----------------------------|--------------|---------------------------------|
-5p3---3-3-5p3---3-3-5p3---3-|-5p3---3-3-5v-|---------------------------------|
-----7---------7---------7---|-----7--------|-0-3p0-5p0-0-6p0-0-5p0-3p0-5p0---|
               Play 3 times

-----------------|------------------------------------------------------------|
-----------------|------10-----10-10-10------------------------10-------------|
-----------------|-9b11----12---------------14r12p10-12--10b11----14r12p10----|
-/-/-/-/-/-/-/-/-|------------------------------------------------------------|
-/-/-/-/-/-/-/-/-|------------------------------------------------------------|
-/-/-/-/-/-/-/-/-|------------------------------------------------------------|


-----------------------------10-------------------------------------|---------|
----------13b15--13-------------13-10-------------------------------|---------|
-12-------------------12b14-----------12----10b12-10b12-10b12r10----|---------|
----12v----------------------------------------------------------12-|---------|
--------------------------------------------------------------------|---------|
--------------------------------------------------------------------|---------|


------------------------------------------------------------------------------|
------------------------------------------------------------------------------|
---------------------------7-5-4---------7-5-4--------7-5-4---------7-5-4-----|
---------------------------7-5-4--7-7-6--7-5-4--7-6-3-7-5-4--7-7-6--7-5-4-----|
-5p3---3-35p3---3-3-5p3-0--5-3-2--7-7-6--5-3-2--7-6-3-5-3-2--7-7-6--5-3-2-----|
-----7--------7-------------------7-7-6---------7-6-3--------7-7-6------------|


---------------------------|--------------------------|-----------------------|
---------------------------|--------------------------|-----------------------|
---------------------------|-----------5------------7-|-----------------------|
-7-6----0--/-/-/-/-/-/-/-/-|-----------5------------7-|-----------------------|
-7-6----0--/-/-/-/-/-/-/-/-|-5p3---3-3-3--5p3---3---5-|-----------------------|
-7-6-3b-0--/-/-/-/-/-/-/-/-|-----7------------7---7---|-----------------------|
Suggest correction
comments
print report bad tab
1 comment total.
0 reply
imfuctup 210 Nov 16, 2003 12:00 AM

Chorus is easier to play like this:

D#|-----------------------------
A#|-----------------------------
F#|-----------------------------
C#|--------3---------3----------
G#|--5p3p0---x-5p3p0---x-5p3p0--
C#|-----------------------------

guest
You may want to rate the tab now too:
select rating
Wanna post a correction for this tab? Suggest correction