Oops, an error
Loading. Please wait.

15 Minutes Old Tab

version 1
version 1

Whole song

3,437 views 1 this week
1 commentread comment
1 2 3 4 5
1 last vote to show rating
add to favorites
launch autoscroll
font size
0
reset
how to read this tab
guitar tuner
Autoscroll
slow
fast
+/-
esc
set tempo
stop
Help us to improve Ultimate-Guitar.com Take our survey!
×
e|----------------------------------------------------------------------------|
B|----------------------------------------------------------------------------|
G|----------------------------------------------------------------------------|
D|--------0---------0---------------------------------------------------------|
A|---3/5------55-4-----4-5----------------------------------------------------|
E|----------------------------------------------------------------------------|
   intro^
e|----------------------------------------------------------------------------|
B|----------------------------------------------------------------------------|
G|----------------------------------------------------------------------------|
D|---0-----0-----0------------------------------------------------------------|
A|------4-----4------4--------------------------------------------------------|
E|----------------------------------------------------------------------------|
    bridge^
e|---------------------------------------------------------------------------|
B|---------------------------------------------------------------------------|
G|---------------------------------------------------------------------------|
D|------0----0------0----0-----0----0-------0----0---------------------------|
A|---5-----5------4----4-----2----2------4----4------------------------------|
E|---------------------------------------------------------------------------|
    chorus^
Suggest correction
Give kudos to tab author, rate the tab!
1 2 3 4 5
comments
print report bad tab
1 comment total.
0 reply
sponj 183 Nov 21, 2005 02:16 PM

the intro is inacurate. it's like this

------------------
------------------
----------------
--2/4--------0--0----
-----5-5-5-4---4--------
----------------

guest
You may want to rate the tab now too:
select rating
Wanna post a correction for this tab? Suggest correction