Oops, an error
Loading. Please wait.

An Olive Grove Facing The Sea Tab

5,436 views 9 this week
1 commentread comment
1 2 3 4 5
excellent!
x 9
add to favorites
launch autoscroll
font size
0
reset
how to read this tab
guitar tuner
Autoscroll
slow
fast
+/-
esc
set tempo
stop
Help us to improve Ultimate-Guitar.com Take our survey!
×
Difficulty
novice
This tab is not my own work and I am not claiming it as my own.
There were no decent tabs of this song on here.
I located the tab below and am simply pasting it here, so it's easier for others to 
discover this great song!
The link where I obtained the tablature from is directly below.

http://www.snowpatrol.com/forum/default.aspx?tid=363010&cid=661

NOT MY OWN TABLATURE!

                               -*-*-*-*-*-*-



Guitar tuning: EADGCC



Sworn to secrecy, I might go after school
She was an angel, I saw her swimming there
I am in such a mess, I can't cope without this

C -0--0--0--0-|
C -0--0--0--0-|
G -0--0--0--0-|
D -3--8--7--5-|
A -1--6--5--3-|
E -x--x--x--x-| 3x



She just teases me, pretends she can't see me here

C -0--0--0--0--0--0--0--|
C -0--0--0--0--0--0--0--|
G -0--0--0--0--0--0--0--|
D -3--8--7--5--7--10-12-|
A -1--6--5--3--5--8--10-|
E -x--x--x--x--x--x--x--| 1x



So let me go out there
I can breathe fresh air
Stay with you all night
just let me love you
Just for a while want to
Be with you all night (2x)
Until I fall asleep (4x)
Just let me be here
I won't tell anyone
Don't want to wake up (2x)

C -0--0--0--0-----|
C -0--0--0--0-----|
G -0--0--0--0-----|
D -12-9--10-12----|
A -0--7--8--10----|
E -x--x--x--x-----|4x



(Bridge to verse:)

C -0--0--0--0--0--0---|
C -0--0--0--0--0--0---|
G -0--0--0--0--0--0---|
D -10-8-10-8--7--5----|
A -8--6--8--6--5--3---|
E -x--x--x--x--x--x---| 1x



The blind lead the blind so why can't I find my way
This could be heaven but I don't know where I am
I am too scared to come out from behind here

C -0--0--0--0-|
C -0--0--0--0-|
G -0--0--0--0-|
D -3--8--7--5-|
A -1--6--5--3-|
E -x--x--x--x-| 3x



My body is aching, it feels like it's wearing me

C -0--0--0--0--0--0--0--|
C -0--0--0--0--0--0--0--|
G -0--0--0--0--0--0--0--|
D -3--8--7--5--7--10-12-|
A -1--6--5--3--5--8--10-|
E -x--x--x--x--x--x--x--| 1x



So let me go out there
I can breathe fresh air
Stay with you all night
just let me love you
Just for a while want to
Be with you all night (2x)
Until I fall asleep (4x)
Just let me be here
I won't tell anyone
Don't want to wake up (2x)

C -0--0--0--0----|
C -0--0--0--0----|
G -0--0--0--0----|
D -12-9-10-12----|
A -0--7--8--10---|
E -x--x--x--x----| 4x


(last riffs)

C -0--0--0--0--0--0--0--|
C -0--0--0--0--0--0--0--|
G -0--0--0--0--0--0--0--|
D -10-8-10-8--7--5--3---|
A -8--6--8--6--5--3--1--|
E -x--x--x--x--x--x--x--|
Suggest correction
comments
print report bad tab
1 comment total.
0 reply
Pete13 10 wrote on July 22 2013, 10:45 pm

Amazing, Thanks so much for finding this and posting it.

guest
You may want to rate the tab now too:
select rating
Wanna post a correction for this tab? Suggest correction