Oops, an error
Loading. Please wait.

Berlin Tab

version 1
version 1

Intro

Whole song

3,048 views 12 this week
1 commentread comment
1 2 3 4 5
accurate
x 7
add to favorites
launch autoscroll
font size
0
reset
how to read this tab
guitar tuner
Tab Pro tools
  • play this tab
  • loop segment
  • change instrument
  • show fretboard
  • metronome
Autoscroll
slow
fast
+/-
esc
set tempo
stop
Difficulty
novice
My first tab! :D
The other one was wrong, here is the correct one.
Think it repeats the whole song

Capo 4 if you want

E|-0-----0---2----0---0-----0---0-----0-----|
B|---3-----3--------3---3-----3---3-3---3-3-|
G|-----2------------------4-----------------|
D|------------------------------------------|
A|------------------------------------------|
E|------------------------------------------|
comments
print report bad tab
1 comment total.
+1 reply
stevo1152 wrote on July 29 2013, 05:15 pm

E|---------------------------------------------|
B|-------------3-------------------------------|
G|--5-3----5-3-----5-3-5-3----5-3-5-3-3-5-3-3--|
D|------3------------------5-------------------|
A|---------------------------------------------|
E|---------------------------------------------|

I want to post or [tab]
guest
You may want to rate the tab now too:
select rating
Please do not post tabs as comments. Select "correction" instead!