Oops, an error
Loading. Please wait.
We have an official Chasing Cars tab made by UG professional guitarists. Check out the tab »
×
1,417 views 69 this week
no commentswrite comment
1 2 3 4 5
2 more votes to show rating
add to favorites
×
Save as Personal and add changes to this tab that will be seen only by you. Learn more ›
×
You can save this tab as Personal to edit and correct it or add notes. All changes will be seen only by you. Learn more »
save as personal
new!
launch autoscroll
font size
0
reset
guitar tuner
backing track
0:00
0:00
Autoscroll
slow
fast
+/-
esc
set tempo
stop
Snow Patrol 
Chasing Cars                            

Key: A – Tempo: 104bpm

Intro: 00:01 (Guitar playing) 

Verse1: 00:04  
G|-------------|-------------|-------------|-------------|-
D|-7r~---------|-6r~---------|-12r~--------|-7r~---------|- 
A|-------------|-------------|-------------|-------------|-
E|-------------|-------------|-------------|-------------|- 
A               E       D             A
We'll do it all, everything, on our own.
G|-------------|-9r~---------|-------------|-------------|-   
D|-7r~---------|-------------|-12r~--------|-7r~---------|- 
A|-------------|-------------|-------------|-------------|-
E|-------------|-------------|-------------|-------------|- 
 A         E        D         A
We don't need anything, or anyone

Chorus1: 00:40
G|-------------|-------------|-------------|-------------|-
D|-7r~---------|-6r~---------|-12r~--------|-7r~---------|-  
A|-------------|-------------|-------------|-------------|-
E|-------------|-------------|-------------|-------------|- 
   A                    E
If I lay here, if I just lay here
                D                           A
Would you lie with me, and just forget the world.

Verse2: 01:00
G|-------------|-------------|-------------|-------------|-
D|-7r~---------|-6r~---------|-12r~--------|-7r~---------|-  
A|-------------|-------------|-------------|-------------|-
E|-------------|-------------|-------------|-------------|- 
A              E           D            A
I don't quite know how to say how I feel
G|-------------|-9r~---------|-------------|-------------|-   
D|-7r~---------|-------------|-12r~--------|-7r~---------|- 
A|-------------|-------------|-------------|-------------|-
E|-------------|-------------|-------------|-------------|- 
A               E               D               A
Those three words, I said too much, but not enough.

Chorus2: 01:37
G|--9-9-9-9-9-9-9~|----------------|----------------|----------------|-   
D|-7-7-7-7-7-7-7--|-6r~----6-6-6-6-|--7-7-7-7-7-7-7~|----------------|-
A|----------------|----------------|-5-5-5-5-5-5-5--|----------------|-
E|----------------|----------------|----------------|-5r~----5-5-5-5-|- 
   A                    E
If I lay here, if I just lay here
                D                           A
Would you lie with me, and just forget the world.


G|--9-9-9-9-9-9-9~|----------------|----------------|----------------|-   
D|-7-7-7-7-7-7-7--|-6r~----6-6-6-6-|--7-7-7-7-7-7-7~|----------------|-
A|----------------|----------------|-5-5-5-5-5-5-5--|----------------|-
E|----------------|----------------|----------------|-5r~----5-5-5-5-|- 
A                                       E
Forget what we're told, before we get too old
           D                            A
Show me a garden that's bursting into life.


Verse3: 02:15
G|-------------|-------------|-------------|-------------|-
D|-7r~---------|-6r~---------|-12r~--------|-7r~---------|-  
A|-------------|-------------|-------------|-------------|-
E|-------------|-------------|-------------|-------------|- 
A               E           D                A
Let's waste time, chasing cars, around our heads.
G|-------------|-9r~---------|-------------|-------------|-   
D|-7r~---------|-------------|-12r~--------|-7.----------|- 
A|-------------|-------------|-------------|-------------|-
E|-------------|-------------|-------------|-------------|- 
A               E            D              A
I need your grace to remind me, to find my own.


Chorus3: 02:50
G|--9-9-9-9-9-9-9~|----------------|----------------|----------------|-   
D|-7-7-7-7-7-7-7--|-6r~----6-6-6-6-|--7-7-7-7-7-7-7~|----------------|-
A|----------------|----------------|-5-5-5-5-5-5-5--|----------------|-
E|----------------|----------------|----------------|-5r~----5-5-5-5-|- 
A                       E
If I lay here, if I just lay here
                D                          A
Would you lie with me, and just forget the world.

G|--9-9-9-9-9-9-9-|----------------|----------------|----------------|-   
D|-7-7-7-7-7-7-7--|-6r~----6-6-6-6-|--7-7-7-7-7-7-7-|----------------|-
A|----------------|----------------|-5-5-5-5-5-5-5--|-----------4--7-|-
E|----------------|----------------|----------------|-5r~-5--7-------|- 
A                                       E
Forget what we're told, before we get too old
           D                            A
Show me a garden that's bursting into life.

G|--9-9-9-9-9-9-9~|----------------|----------------|----------------|-   
D|-7-7-7-7-7-7-7--|-6r~----6-6-6-6-|--7-7-7-7-7-7-7~|----------------|-
A|----------------|----------------|-5-5-5-5-5-5-5--|----------------|-
E|----------------|----------------|----------------|-5r~----5-5-5-5-|- 
A                       E
All that I am, all that I ever was 
                        D                       A
Is here in your perfect eyes, they're all I can see


G|--9-9-9-9-9-9-9-|----------------|----------------|----------------|-   
D|-7-7-7-7-7-7-7--|-6r~----6-6-6-6-|--7-7-7-7-7-7-7-|----------------|-
A|----------------|----------------|-5-5-5-5-5-5-5--|-----------4--7-|-
E|----------------|----------------|----------------|-5r~-5--7-------|- 
A                                  E
I don't know where, confused about how as well
                        D                               A
just know that these things will never change for us at all.


Outro: 04:03  Guitar playing till the end...
G|-------------|-------------|-------------|-------------|-
D|-7r~---------|-6r~---------|-12r~--------|-7r~---------|-   
A|-------------|-------------|-------------|-------------|-
E|-------------|-------------|-------------|-------------|- 
A                       E
If I lay here, if I just lay here
                D                       A
Would you lie with me, and just forget the world.

End: 04:26
Suggest correction
Give kudos to tab author, rate the tab!
1 2 3 4 5
comments
print report bad tab
guest
You may want to rate the tab now too:
select rating
Wanna post a correction for this tab? Suggest correction