Oops, an error
Loading. Please wait.

Chasing Cars Tab

version 8
version 8

Whole song

Video

  • Teaches two versions - one with capo and one without.
48,347 views 24 this week
1 commentread comment
1 2 3 4 5
x 15
add to favorites
launch autoscroll
font size
0
reset
how to read this tab
guitar tuner
Autoscroll
slow
fast
+/-
esc
set tempo
stop
Help us to improve Ultimate-Guitar.com Take our survey!
×
Author
Tuning
D A D G B E
Snow Patrol
Chasing Cars
Guitar Tab
Drop D Tuning
Tabbed By Jonathan Mack

 [Intro]
 Lead Guitar
 0:00
E|--------------------------------|
B|--------------------------------|
G|--9---9---9---9---9---9---9---9-|
D|7---7---7---7---7---7---7---7---| x1
A|--------------------------------|
D|--------------------------------|

 [Verse 1]
 Lead Guitar
 0:04                            0:09
E|-------------------------------|--------------------------------|
B|-------------------------------|--------------------------------|
G|--9---9---9---9---9---9---9---9|--9---9---9---9---9---9---9---9-|
D|----7---7---7---7---7---7---7--|----7---7---7---7---7---7---7---|
A|-------------------------------|--------------------------------|
D|7------------------------------|6-------------------------------|

 0:14                            0:18
E|-------------------------------|--------------------------------|
B|-------------------------------|--------------------------------|
G|--9---9---9---9---9---9---9---9|--9---9---9---9---9---9---9---9-|
D|----7---7---7---7---7---7---7--|----7---7---7---7---7---7---7---| x2 
A|-------------------------------|--------------------------------|
D|0------------------------------|7-------------------------------|

[Chorus 1]

 Rhythm Guitar
 0:41
E|------------------------------------------------------------------|
B|------------------------------------------------------------------|
G|------------------------------------------------------------------|
D|------------------------------------------------------------------| x2
A|------------------------------------------------------------------|
D|7777777777777777666666666666666600000000000000007777777777777777--|

 Lead Guitar
 0:41                            0:46
E|-------------------------------|--------------------------------|
B|-------------------------------|--------------------------------|
G|--9---9---9---9---9---9---9---9|--9---9---9---9---9---9---9---9-|
D|----7---7---7---7---7---7---7--|----7---7---7---7---7---7---7---|
A|-------------------------------|--------------------------------|
D|7------------------------------|6-------------------------------|

 0:51                            0:55                         
E|-------------------------------|--------------------------------|
B|-------------------------------|--------------------------------|
G|--9---9---9---9---9---9---9---9|--9---9---9---9---9---9---9---9-|
D|----7---7---7---7---7---7---7--|----7---7---7---7---7---7---7---| x2 
A|-------------------------------|--------------------------------|
D|0------------------------------|7-------------------------------|

 [Verse 2]
 Lead Guitar
 1:00                            1:04
E|-------------------------------|--------------------------------|
B|-------------------------------|--------------------------------|
G|--9---9---9---9---9---9---9---9|--9---9---9---9---9---9---9---9-|
D|----7---7---7---7---7---7---7--|----7---7---7---7---7---7---7---| 
A|-------------------------------|--------------------------------|
D|7------------------------------|6-------------------------------|

 1:09                            1:14
E|-------------------------------|--------------------------------|
B|-------------------------------|--------------------------------|
G|--9---9---9---9---9---9---9---9|--9---9---9---9---9---9---9---9-|
D|----7---7---7---7---7---7---7--|----7---7---7---7---7---7---7---| x2 
A|-------------------------------|--------------------------------|
D|0------------------------------|7-------------------------------|

 Piano
 1:20
E|9-------
B|--9-10--
G|--------
D|-------- x1
A|--------
D|--------

    [Chorus 2]
    Guitar Two
    1:37
E|------------------------------------------------------------------|
B|------------------------------------------------------------------|
G|------------------------------------------------------------------|
D|------------------------------------------------------------------| x2
A|------------------------------------------------------------------|
D|7777777777777777666666666666666600000000000000007777777777777777--|

 Lead Guitar
 1:37                            1:41
E|-------------------------------|--------------------------------|
B|-------------------------------|--------------------------------|
G|--9---9---9---9---9---9---9---9|--9---9---9---9---9---9---9---9-|
D|----7---7---7---7---7---7---7--|----7---7---7---7---7---7---7---| 
A|-------------------------------|--------------------------------|
D|7------------------------------|6-------------------------------|

 1:46                            1:50
E|-------------------------------|--------------------------------|
B|-------------------------------|--------------------------------|
G|--9---9---9---9---9---9---9---9|--9---9---9---9---9---9---9---9-|
D|----7---7---7---7---7---7---7--|----7---7---7---7---7---7---7---| x2 
A|-------------------------------|--------------------------------|
D|0------------------------------|7-------------------------------|

    [Verse 3]
    Rhythm Guitar
    2:14
E|-9-9-9-9-9-9-9-9-9-9-9-9-9-9-9-9--|
B|10101010101010101010101010101010--|
G|-9-9-9-9-9-9-9-9-9-9-9-9-9-9-9-9--|
D|-7-7-7-7-7-7-7-7-7-7-7-7-7-7-7-7--| x8
A|----------------------------------|
D|----------------------------------|

 Piano
 2:16    2:21   2:25      2:35   2:39   2:43          
E|9-----|9-----|9--------|9-----|9------|9------|----|
B|--9-10|--9-10|--9-10---|--9-10|--9-9-7|--9-10-|17--|
G|------|------|---------|------|-------|-------|----|
D|------|------|---------|------|-------|-------|----| x1
A|------|------|---------|------|-------|-------|----|
D|------|------|---------|------|-------|-------|----|

  [Chorus 3]
  Rhythm Guitar
  2:51
E|--------------------------------------------------------------|
B|--------------------------------------------------------------|
G|--------------------------------------------------------------|
D|--------------------------------------------------------------| x1
A|777777777777777777777777777777770000000000000000777777777777--|
D|777777777777777766666666666666660000000000000000777777777777--|

  3:09
E|------------------------------------------------------------------|
B|------------------------------------------------------------------|
G|----------------------------------------------------444466666666--|
D|----------------------------------------------------xxxxxxxxxxxx--| x1
A|7777777777777777777777777777777700000000000000007777222244444444--|
D|7777777777777777666666666666666600000000000000007777--------------|

  3:28
E|--------------------------------------------------------------|
B|--------------------------------------------------------------|
G|--------------------------------------------------------------|
D|--------------------------------------------------------------| x1
A|777777777777777777777777777777770000000000000000777777777777--|
D|777777777777777766666666666666660000000000000000777777777777--|

  3:46
E|------------------------------------------------------------------|
B|------------------------------------------------------------------|
G|----------------------------------------------------444466666666--|
D|----------------------------------------------------xxxxxxxxxxxx--| x1
A|7777777777777777777777777777777700000000000000007777222244444444--|
D|7777777777777777666666666666666600000000000000007777--------------|

 [Outro]
 Lead Guitar
 4:05                            4:09
E|-------------------------------|--------------------------------|
B|-------------------------------|--------------------------------|
G|--9---9---9---9---9---9---9---9|--9---9---9---9---9---9---9---9-|
D|----7---7---7---7---7---7---7--|----7---7---7---7---7---7---7---| 
A|-------------------------------|--------------------------------|
D|7------------------------------|6-------------------------------|

 4:14                            4:18
E|-------------------------------|--------------------------------|
B|-------------------------------|--------------------------------|
G|--9---9---9---9---9---9---9---9|--9---9---9---9---9---9---9---9-|
D|----7---7---7---7---7---7---7--|----7---7---7---7---7---7---7---| x1
A|-------------------------------|--------------------------------|
D|0------------------------------|7-------------------------------|
Suggest correction
comments
print report bad tab
1 comment total.
0 reply
Nomski 654 Mar 20, 2010 12:49 PM

|9-----|9-----|9--------|9-----|9------|9------|17--|
|--9-10|--9-10|--9-10---|--9-10|--9-9-7|--9-10-|----|
|------|------|---------|------|-------|-------|----|
|------|------|---------|------|-------|-------|----| x1
|------|------|---------|------|-------|-------|----|
|------|------|---------|------|-------|-------|----|

guest
You may want to rate the tab now too:
select rating
Wanna post a correction for this tab? Suggest correction