Oops, an error
Loading. Please wait.

Chasing Cars Tab

version 9
version 9

Whole song

Video

  • Teaches two versions - one with capo and one without.
289 views 6 this week
no commentswrite comment
1 2 3 4 5
1 last vote to show rating
add to favorites
launch autoscroll
font size
0
reset
how to read this tab
guitar tuner
Autoscroll
slow
fast
+/-
esc
set tempo
stop
Help us to improve Ultimate-Guitar.com Take our survey!
×
Author
Difficulty
advanced
About this tab version
This tab shows you how to fingerpick the notes from the original song. It also has lyrics. Was this info helpful? Yes No
[Intro]

p-pause

e|------------------9--------------------------------9------------------|
B|------------------------9-------10-----------------------9-------7----|
G|----9---9---9---9---9---9---9--------9---9---9---9---9---9---9--------|
D|--7---7---7---7---7---7---7---7----6---6---6---6---6---6---6---6------|
A|----------------------------------------------------------------------|
E|----------------------------------------------------------------------|
                                                                              x2
e------------------9---------------------------------------------------|
B------------------------9-------10------------------------------------|
G----9---9---9---9---9---9---9--------9---9---9---9----9---9---9---9---|   
D--0---0---0---0---0---0---0---0----7---7---7---7---p7---7---7---------|
A----------------------------------------------------------------0-----|
E----------------------------------------------------------------------|


[Verse]

                    We'll do it all                  Everything  
e|------------------9--------------------------------9------------------|
B|------------------------9-------10-----------------------9-------7----|
G|----9---9---9---9---9---9---9--------9---9---9---9---9---9---9--------|
D|--7---7---7---7---7---7---7---7----6---6---6---6---6---6---6---6------|
A|----------------------------------------------------------------------|
E|----------------------------------------------------------------------|
                   On our own                                                
e|------------------9---------------------------------------------------|
B|------------------------9-------10------------------------------------|
G|----9---9---9---9---9---9---9--------9---9---9---9---9---9---9---9----|   
D|--0---0---0---0---0---0---0---0----7---7---7---7---7---7---7---7------|
A|----------------------------------------------------------------------|
E|----------------------------------------------------------------------|

                    We don't need                    Anything  
e|------------------9--------------------------------9------------------|
B|------------------------9-------10-----------------------9-------7----|
G|----9---9---9---9---9---9---9--------9---9---9---9---9---9---9--------|
D|--7---7---7---7---7---7---7---7----6---6---6---6---6---6---6---6------|
A|----------------------------------------------------------------------|
E|----------------------------------------------------------------------|
                   On any one                                               
e|------------------9---------------------------------------------------|
B|------------------------9-------10------------------------------------|
G|----9---9---9---9---9---9---9--------9---9---9---9---9---9---9---9----|   
D|--0---0---0---0---0---0---0---0----7---7---7---7---7---7---7---7------|
A|----------------------------------------------------------------------|
E|----------------------------------------------------------------------|


[Chorus]

                    If I lay here           If I just lay here
e|------------------9-9-9---9---------------9-9-9---9-------7------|
B|-----------------------------------------------------------------|
G|----9---9---9---9---9---9---9---9---9---9---9---9---9---9---9----|
D|--7---7---7---7---7---7---7---7---7---7---7---7---7---7---6------|
A|-----------------------------------------------------------------|
E|-----------------------------------------------------------------|
                Would you lie with me and just forget the world               
e|------------------9-9-9---9-----7---------10--9---7--------------|
B|------------------------------------10-----------------10--10----|
G|----9---9---9---9---9---9---9---9---9---9---9---9---9------------|
D|--6---6---6---6---6---6---6---6---6---6---6---6---6----7---7-----|
A|-----------------------------------------------------------------|
E|-----------------------------------------------------------------|


[Verse]

                    I don't quite know               How to say 
e|------------------9--------------------------------9------------------|
B|------------------------9-------10-----------------------9-------7----|
G|----9---9---9---9---9---9---9--------9---9---9---9---9---9---9--------|
D|--7---7---7---7---7---7---7---7----6---6---6---6---6---6---6---6------|
A|----------------------------------------------------------------------|
E|----------------------------------------------------------------------|
                   How I feel                                                 
e|------------------9---------------------------------------------------|
B|------------------------9-------10------------------------------------|
G|----9---9---9---9---9---9---9--------9---9---9---9---9---9---9---9----|   
D|--0---0---0---0---0---0---0---0----7---7---7---7---7---7---7---7------|
A|----------------------------------------------------------------------|
E|----------------------------------------------------------------------|
                   Those three words                 Are said too much,  
e|------------------9--------------------------------9------------------|
B|------------------------9-------10-----------------------9-------7----|
G|----9---9---9---9---9---9---9--------9---9---9---9---9---9---9--------|
D|--7---7---7---7---7---7---7---7----6---6---6---6---6---6---6---6------|
A|----------------------------------------------------------------------|
E|----------------------------------------------------------------------|
                   They're not enough                                         
e|------------------9---------------------------------------------------|
B|------------------------9-------10------------------------------------|
G|----9---9---9---9---9---9---9--------9---9---9---9---9---9---9---9----|   
D|--0---0---0---0---0---0---0---0----7---7---7---7---7---7---7---7------|
A|----------------------------------------------------------------------|
E|----------------------------------------------------------------------|


[Chorus]

                    If I lay here           If I just lay here
e|------------------9-9-9---9---------------9-9-9---9-------7------|
B|-----------------------------------------------------------------|
G|----9---9---9---9---9---9---9---9---9---9---9---9---9---9---9----|
D|--7---7---7---7---7---7---7---7---7---7---7---7---7---7---6------|
A|-----------------------------------------------------------------|
E|-----------------------------------------------------------------|
                Would you lie with me and just forget the world               

e|------------------9-9-9---9-----7---------10--9---7--------------|
B|------------------------------------10-----------------10--10----|
G|----9---9---9---9---9---9---9---9---9---9---9---9---9------------|
D|--6---6---6---6---6---6---6---6---6---6---6---6---6----7---7-----|
A|-----------------------------------------------------------------|
E|-----------------------------------------------------------------|


[Bridge]

                  Forget what we're told   Before we get too old
e|------------------9-9-9---9---------------9-9-9---9-------7------|
B|-----------------------------------------------------------------|
G|----9---9---9---9---9---9---9---9---9---9---9---9---9---9---9----|
D|--7---7---7---7---7---7---7---7---7---7---7---7---7---7---6------|
A|-----------------------------------------------------------------|
E|-----------------------------------------------------------------|
                   Show me a garden that's bursting into life
e|------------------9-9-9---9-----7---------10--9---7--------------|
B|------------------------------------10-----------------10--10----|
G|----9---9---9---9---9---9---9---9---9---9---9---9---9------------|
D|--6---6---6---6---6---6---6---6---6---6---6---6---6----7---7-----|
A|-----------------------------------------------------------------|
E|-----------------------------------------------------------------|


[Verse]

                    Let's waste time               Chasing Cars 
e|------------------9--------------------------------9------------------|
B|------------------------9-------10-----------------------9-------7----|
G|----9---9---9---9---9---9---9--------9---9---9---9---9---9---9--------|
D|--7---7---7---7---7---7---7---7----6---6---6---6---6---6---6---6------|
A|----------------------------------------------------------------------|
E|----------------------------------------------------------------------|
                   Around our heads                                                

e|------------------9---------------------------------------------------|
B|------------------------9-------10------------------------------------|
G|----9---9---9---9---9---9---9--------9---9---9---9---9---9---9---9----|   
D|--0---0---0---0---0---0---0---0----7---7---7---7---7---7---7---7------|
A|----------------------------------------------------------------------|
E|----------------------------------------------------------------------|

                   I need your grace                 To remind me  
e|------------------9--------------------------------9------------------|
B|------------------------9-------10-----------------------9-------7----|
G|----9---9---9---9---9---9---9--------9---9---9---9---9---9---9--------|
D|--7---7---7---7---7---7---7---7----6---6---6---6---6---6---6---6------|
A|----------------------------------------------------------------------|
E|----------------------------------------------------------------------|
                   To find my own                                          

e|------------------9---------------------------------------------------|
B|------------------------9-------10------------------------------------|
G|----9---9---9---9---9---9---9--------9---9---9---9---9---9---9---9----|   
D|--0---0---0---0---0---0---0---0----7---7---7---7---7---7---7---7------|
A|----------------------------------------------------------------------|
E|----------------------------------------------------------------------|


[Chorus]

                    If I lay here           If I just lay here
e|------------------9-9-9---9---------------9-9-9---9-------7------|
B|-----------------------------------------------------------------|
G|----9---9---9---9---9---9---9---9---9---9---9---9---9---9---9----|
D|--7---7---7---7---7---7---7---7---7---7---7---7---7---7---6------|
A|-----------------------------------------------------------------|
E|-----------------------------------------------------------------|
                Would you lie with me and just forget the world               

e|------------------9-9-9---9-----7---------10--9---7--------------|
B|------------------------------------10-----------------10--10----|
G|----9---9---9---9---9---9---9---9---9---9---9---9---9------------|
D|--6---6---6---6---6---6---6---6---6---6---6---6---6----7---7-----|
A|-----------------------------------------------------------------|
E|-----------------------------------------------------------------|


[Bridge]

                  Forget what we're told   Before we get too old
e|------------------9-9-9---9---------------9-9-9---9-------7------|
B|-----------------------------------------------------------------|
G|----9---9---9---9---9---9---9---9---9---9---9---9---9---9---9----|
D|--7---7---7---7---7---7---7---7---7---7---7---7---7---7---6------|
A|-----------------------------------------------------------------|
E|-----------------------------------------------------------------|
                   Show me a garden that's bursting into life
e|------------------9-9-9---9-----7---------10--9---7--------------|
B|------------------------------------10-----------------10--10----|
G|----9---9---9---9---9---9---9---9---9---9---9---9---9------------|
D|--6---6---6---6---6---6---6---6---6---6---6---6---6----7---7-----|
A|-----------------------------------------------------------------|
E|-----------------------------------------------------------------|


[Verse]

                    All that I am           All that I ever was 
e|------------------9-9-9---9---------------9-9-9---9-------7------|
B|-----------------------------------------------------------------|
G|----9---9---9---9---9---9---9---9---9---9---9---9---9---9---9----|
D|--7---7---7---7---7---7---7---7---7---7---7---7---7---7---6------|
A|-----------------------------------------------------------------|
E|-----------------------------------------------------------------|
              Is here in your perfect eyes They're all I can see

e|------------------9-9-9---9-----7---------10--9---7--------------|
B|------------------------------------10-----------------10--10----|
G|----9---9---9---9---9---9---9---9---9---9---9---9---9------------|
D|--6---6---6---6---6---6---6---6---6---6---6---6---6----7---7-----|
A|-----------------------------------------------------------------|
E|-----------------------------------------------------------------|
                   I don't know where      Confused about how as well

e|------------------9-9-9---9---------------9-9-9---9-------7------|
B|-----------------------------------------------------------------|
G|----9---9---9---9---9---9---9---9---9---9---9---9---9---9---9----|
D|--7---7---7---7---7---7---7---7---7---7---7---7---7---7---6------|
A|-----------------------------------------------------------------|
E|-----------------------------------------------------------------|
               Just know that these things Will never change for us at all

e|------------------9-9-9---9-----7---------10--9---7--------------|
B|------------------------------------10-----------------10--10----|
G|----9---9---9---9---9---9---9---9---9---9---9---9---9------------|
D|--6---6---6---6---6---6---6---6---6---6---6---6---6----7---7-----|
A|-----------------------------------------------------------------|
E|-----------------------------------------------------------------|


[Chorus]

                    If I lay here           If I just lay here
e|------------------9-9-9---9---------------9-9-9---9-------7------|
B|-----------------------------------------------------------------|
G|----9---9---9---9---9---9---9---9---9---9---9---9---9---9---9----|
D|--7---7---7---7---7---7---7---7---7---7---7---7---7---7---6------|
A|-----------------------------------------------------------------|
E|-----------------------------------------------------------------|
                Would you lie with me and just forget the world               

e|------------------9-9-9---9-----7---------10--9---7------------------------------------------------|
B|------------------------------------10-----------------10--10--------------------------------------|
G|----9---9---9---9---9---9---9---9---9---9---9---9---9------------9---9---9---9----9---9---9---9----|
D|--6---6---6---6---6---6---6---6---6---6---6---6---6----7---7---7---7---7---7---p7---7---7----------|
A|---------------------------------------------------------------------------------------------0-----|
E|---------------------------------------------------------------------------------------------------|


************************************

| x  Dead note
| p  Pull-off

************************************
Suggest correction
Give kudos to tab author, rate the tab!
1 2 3 4 5
comments
print report bad tab
guest
You may want to rate the tab now too:
select rating
Wanna post a correction for this tab? Suggest correction