Oops, an error
Loading. Please wait.

Chocolate Bass Tab

version 1
version 1

Whole song

Interactive

3,722 views 1 this week
1 commentread comment
1 2 3 4 5
accurate
x 4
add to favorites
launch autoscroll
font size
0
reset
guitar tuner
Autoscroll
slow
fast
+/-
esc
set tempo
stop
Help us to improve Ultimate-Guitar.com Take our survey!
×
Author
Difficulty
Tabbed by: Belavista Man
On: 15/07/07
E-mail: anthonybentley@hotmail.co.uk

Intro:
   D               G               D               G
G|-----------------------------------------------------------------|
D|-----------------------------------------------------------------|
A|-5-5-5-5-5-5-5-5-----------------5-5-5-5-5-5-5-5-----------------|
E|-----------------3-3-3-3-3-3-3-3-----------------3-3-3-3-3-3-3-3-|
  (play 6 times before vocals come in)

Verses:
(the lyrics underneath the tablature are what are being sung as the note 
changes - they often help with timings)

   D               G               D               G
G|-----------------------------------------------------------------|
D|-----------------------------------------------------------------|
A|-5-5-5-5-5-5-5-5-----------------5-5-5-5-5-5-5-5-----------------|
E|-----------------3-3-3-3-3-3-3-3-----------------3-3-3-3-3-3-3-3-|
   This            very            I'm aware       alive

   D               G               D               G
G|-----------------------------------------------------------------|
D|-----------------------------------------------------------------|
A|-5-5-5-5-5-5-5-5-----------------5-5-5-5-5-5-5-5-----------------|
E|-----------------3-3-3-3-3-3-3-3-----------------3-3-3-3-3-3-3-3-|
   All             feel like home.


   D               G               D               G
G|-----------------------------------------------------------------|
D|-----------------------------------------------------------------|
A|-5-5-5-5-5-5-5-5-----------------5-5-5-5-5-5-5-5-----------------|
E|-----------------3-3-3-3-3-3-3-3-----------------3-3-3-3-3-3-3-3-|
   With            never           I can make      first

   D               G               G               
G|-------------------------------------------------|
D|-------------------------------------------------|
A|-5-5-5-5-5-5-5-5---------------------------------|
E|-----------------5-3-3-3-3-3-3-3-5-3-3-3-3-3-3-3-|
   As              twenty five

Chorus:

   D               A               G
G|-------------------------------------------------|
D|-------------------------------------------------|
A|-5-5-5-5-5-5-5-5---------------------------------|
E|-----------------5-5-5-5-5-5-5-5-3-3-3-3-3-3-3-3-|
   straw    (final)straw           the

   D               A               G
G|-------------------------------------------------|
D|-------------------------------------------------|
A|-5-5-5-5-5-5-5-5---------------------------------|
E|-----------------5-5-5-5-5-5-5-5-3-3-3-3-3-3-3-3-|
   mouth           lie             you

   D               A               G
G|-------------------------------------------------|
D|-------------------------------------------------|
A|-5-5-5-5-5-5-5-5---------------------------------|
E|-----------------5-5-5-5-5-5-5-5-3-3-3-3-3-3-3-3-|
   I'm             doesn't         mean

   D               A               G
G|-------------------------------------------------|
D|-------------------------------------------------|
A|-5-5-5-5-5-5-5-5---------------------------------|
E|-----------------5-5-5-5-5-5-5-5-3-3-3-3-3-3-3-3-|
 enjoy            at              time

[Intro again]

That's the bulk of it, really. Here's the lyrics in full, if it helps!


This could be the very minute
I'm aware I'm alive
All these places feel like home

With a name I'd never chosen
I can make my first steps
As a child of 25

This is the straw, final straw in the
Roof of my mouth as I lie to you
Just because I'm sorry doesn't mean
I didn't enjoy it at the time

You're the only thing that I love
It scares me more every day
On my knees I think clearer

Goodness knows I saw it coming
Or at least I'll claim I did
But in truth I'm lost for words

What have I done it's too late for that
What have I become truth is nothing yet
A simple mistake starts the hardest time
I promise I'll do anything you ask...this time
Suggest correction
comments
print report bad tab
1 comment total.
0 reply
ConnorBSP 40 wrote on July 9 2008, 01:21 pm

not so sure about the chorus

guest
You may want to rate the tab now too:
select rating
Please do not post tabs as comments. Select "correction" instead!