Oops, an error
Loading. Please wait.

Chocolate Tab

version 4
version 4

Whole song

Interactive

1,887 views 1 this week
no commentswrite comment
1 2 3 4 5
accurate
x 4
add to favorites
launch autoscroll
font size
0
reset
how to read this tab
guitar tuner
Tab Pro tools
  • play this tab
  • loop segment
  • change instrument
  • show fretboard
  • metronome
×
Best way to learn
"Chocolate"
Autoscroll
slow
fast
+/-
esc
set tempo
stop
Contributor
Snow Patrol Chocolate
From the album Final straw
Track 6
Tabbed by Liam
Email: guitar_rocker_47@hotmail.com
Tuning standard
Date: 11th April 2005

Pay close attention to the order at the bottom of this tab or it doesn’t make sense!

Intro
E|----------------------------------|----------------------------------|
B|----------------------------------|----------------------------------|
G|-7-x-7-x-7-x-7-x------------------|-7-x-7-x-7-x-7-x------------------|
D|-7-x-7-x-7-x-7-x--5-x-5-x-5-x-5-x-|-7-x-7-x-7-x-7-x--5-x-5-x-5-x-5-x-|
A|-5-x-5-x-5-x-5-x--5-x-5-x-5-x-5-x-|-5-x-5-x-5-x-5-x--5-x-5-x-5-x-5-x-|
E|------------------3-x-3-x-3-x-3-x-|------------------3-x-3-x-3-x-3-x-|

Intro part 2
Guitar 1
E|----------------------------------|----------------------------------|
B|----------------------------------|----------------------------------|
G|-7-x-7-x-7-x-7-x------------------|-7-x-7-x-7-x-7-x------------------|
D|-7-x-7-x-7-x-7-x--5-x-5-x-5-x-5-x-|-7-x-7-x-7-x-7-x--5-x-5-x-5-x-5-x-|
A|-5-x-5-x-5-x-5-x--5-x-5-x-5-x-5-x-|-5-x-5-x-5-x-5-x--5-x-5-x-5-x-5-x-|
E|------------------3-x-3-x-3-x-3-x-|------------------3-x-3-x-3-x-3-x-|

Guitar 2
E|----------------------------------|----------------------------------|
B|----------------------------------|----------------------------------|
G|----------------------------------|----------------------------------|
D|-2/4/2-0h2------------------------|-2/4/2-0h2------------------------|
A|-------------2--------------------|-------------2--------------------|
E|----------------------------------|----------------------------------|

Verse
Guitar 1
E|----------------------------------|----------------------------------|
B|----------------------------------|----------------------------------|
G|-7-x-7-x-7-x-7-x------------------|-7-x-7-x-7-x-7-x------------------|
D|-7-x-7-x-7-x-7-x--5-x-5-x-5-x-5-x-|-7-x-7-x-7-x-7-x--5-x-5-x-5-x-5-x-|
A|-5-x-5-x-5-x-5-x--5-x-5-x-5-x-5-x-|-5-x-5-x-5-x-5-x--5-x-5-x-5-x-5-x-|
E|------------------3-x-3-x-3-x-3-x-|------------------3-x-3-x-3-x-3-x-|

Guitar 2
E|----2----2----------2-----5p2-----|----2----2----------2-----5p2-----------|
B|--3----3----3---3------3-------3--|--3----3----3---3------3-------3--------|
G|----------------------------------|----------------------------------------|
D|----------------------------------|----------------------------------------|
A|----------------------------------|----------------------------------------|
E|----------------------------------|    ------------------------------------|

Chorus
E|----------------------------------|----------------------------------|
B|---------7-7-7-7--8-8-8-8-8-8-8-8-|---------7-7-7-7--8-8-8-8-8-8-8-8-|
G|-7-7-7-7-6-6-6-6--7-7-7-7-7-7-7-7-|-7-7-7-7-6-6-6-6--7-7-7-7-7-7-7-7-|
D|-7-7-7-7-4-4-4-4--5-5-5-5-5-5-5-5-|-7-7-7-7-4-4-4-4--5-5-5-5-5-5-5-5-|
A|-5-5-5-5--------------------------|-5-5-5-5--------------------------|
E|----------------------------------|----------------------------------|

Post Chorus
Guitar 1
E|----2----2----------2-----5p2-----|----2----2----------2-----5p2-----|
B|--3----3----3---3------3-------3--|--3----3----3---3------3-------3--|
G|----------------------------------|----------------------------------|
D|----------------------------------|----------------------------------|
A|----------------------------------|----------------------------------|
E|----------------------------------|----------------------------------|

Guitar 2
E|----------------------------------|----------------------------------|
B|----------------------------------|----------------------------------|
G|----------------------------------|----------------------------------|
D|-2/4/2-0h2------------------------|-2/4/2-0h2------------------------|
A|-------------2--------------------|-------------2--------------------|
E|----------------------------------|----------------------------------|

Post Chorus 2 (this is confusin cos there is 3 guitars going at once but here we go)
Guitar 1
E|----2----2----------2-----5p2-----|----2----2----------2-----5p2-----|
B|--3----3----3---3------3-------3--|--3----3----3---3------3-------3--|
G|----------------------------------|----------------------------------|
D|----------------------------------|----------------------------------|
A|----------------------------------|----------------------------------|
E|----------------------------------|----------------------------------|

Guitar 2
E|----------------------------------|----------------------------------|
B|----------------------------------|----------------------------------|
G|----------------------------------|----------------------------------|
D|-2/4/2-0h2------------------------|-2/4/2-0h2------------------------|
A|-------------2--------------------|-------------2--------------------|
E|----------------------------------|----------------------------------|

Guitar 3
E|----------------------------------|----------------------------------|
B|----------------------------------|----------------------------------|
G|-7-7-7-7-7-7-7-7------------------|-7-7-7-7-7-7-7-7------------------|
D|-7-7-7-7-7-7-7-7--5-5-5-5-5-5-5-5-|-7-7-7-7-7-7-7-7--5-5-5-5-5-5-5-5-|
A|-5-5-5-5-5-5-5-5--5-5-5-5-5-5-5-5-|-5-5-5-5-5-5-5-5--5-5-5-5-5-5-5-5-|
E|------------------3-3-3-3-3-3-3-3-|------------------3-3-3-3-3-3-3-3-|

Order

Intro x2
Intro part 2
Verse x 4
Chorus x2
Post Chorus
Post Chorus 2
Verse x 4
Chorus x2
comments
print report bad tab
I want to post or [tab]
guest
You may want to rate the tab now too:
select rating
Please do not post tabs as comments. Select "correction" instead!