Oops, an error
Loading. Please wait.

Chocolate Tab

version 5
version 5

Whole song

Interactive

4,121 views 6 this week
no commentswrite comment
1 2 3 4 5
please rate
add to favorites
launch autoscroll
font size
0
reset
how to read this tab
guitar tuner
Autoscroll
slow
fast
+/-
esc
set tempo
stop
Help us to improve Ultimate-Guitar.com Take our survey!
×
Author
Tabbers playing skills
intermediate +
-------------------------------------------------------------------------------
                          CHOCOLATE – Snow Patrol
-------------------------------------------------------------------------------
Tabbed by: 0GibsonLesPaul0
Email: -----

Tuning: Dropped D

intro                                                                       4x
e|---------------------------------------------------------------------------|
B|o-------------------------------------------------------------------------o|
G|---------------------------------------------------------------------------|
D|--0-0-0-0-0-0-0-0-5-5-5-5-5-5-5-5------------------------------------------|
A|o-0-0-0-0-0-0-0-0-5-5-5-5-5-5-5-5-----------------------------------------o|
D|--0-0-0-0-0-0-0-0-5-5-5-5-5-5-5-5------------------------------------------|

B|---------------------------------------------------------------------------|
G|---------------------------------------------------------------------------|
D|-4p2—-2-----4p2—-2---------------------------------------------------------|
A|----h5-2-------h5-2--------------------------------------------------------|
D|---------------------------------------------------------------------------|
 |                                                                         2x
e|---------------------------------------------------------------------------|
B|o-------------------------------------------------------------------------o|
G|---------------------------------------------------------------------------|
D|--0-0-0-0-0-0-0-0-5-5-5-5-5-5-5-5------------------------------------------|
A|o-0-0-0-0-0-0-0-0-5-5-5-5-5-5-5-5-----------------------------------------o|
D|--0-0-0-0-0-0-0-0-5-5-5-5-5-5-5-5------------------------------------------|

verse                                                                      8x
e|---------------------------------------------------------------------------|
B|o-------------------------------------------------------------------------o|
G|---------------------------------------------------------------------------|
D|--0-0-0-0-0-0-0-0-5-5-5-5-5-5-5-5------------------------------------------|
A|o-0-0-0-0-0-0-0-0-5-5-5-5-5-5-5-5-----------------------------------------o|
D|--0-0-0-0-0-0-0-0-5-5-5-5-5-5-5-5------------------------------------------|

pre chorus
e|---------------------------------------------------------------------------|
B|---------------------------------------------------------------------------|
G|---------------------------------------------------------------------------|
D|-5-5-5-5-5-5-5-5-----------------------------------------------------------|
A|-5-5-5-5-5-5-5-5-----------------------------------------------------------|
D|-5-5-5-5-5-5-5-5-----------------------------------------------------------|

chorus                                                                     4x
e|---------------------------------------------------------------------------|
B|---------------------------------------------------------------------------|
G|---------------------------------------------------------------------------|
D|-0-0-0-0-0-0-0-0-4-4-4-4-4-4-4-4-5-5-5-5-5-5-5-5---------------------------|
A|-0-0-0-0-0-0-0-0-4-4-4-4-4-4-4-4-5-5-5-5-5-5-5-5---------------------------|
D|-0-0-0-0-0-0-0-0-4-4-4-4-4-4-4-4-5-5-5-5-5-5-5-5---------------------------|

bridge                                                                      2x
B|---------------------------------------------------------------------------|
G|---------------------------------------------------------------------------|
D|-4p2—-2-----4p2—-2---------------------------------------------------------|
A|----h5-2-------h5-2--------------------------------------------------------|
D|---------------------------------------------------------------------------|
 |                                                                         2x
e|---------------------------------------------------------------------------|
B|o-------------------------------------------------------------------------o|
G|---------------------------------------------------------------------------|
D|--0-0-0-0-0-0-0-0-5-5-5-5-5-5-5-5------------------------------------------|
A|o-0-0-0-0-0-0-0-0-5-5-5-5-5-5-5-5-----------------------------------------o|
D|--0-0-0-0-0-0-0-0-5-5-5-5-5-5-5-5------------------------------------------|

e|---------------------------------------------------------------------------|
B|---------------------------------------------------------------------------|
G|---------------------------------------------------------------------------|
D|---------------------------------------------------------------------------|
A|---------------------------------------------------------------------------|
D|---------------------------------------------------------------------------|

verse                                                                      8x
e|---------------------------------------------------------------------------|
B|o-------------------------------------------------------------------------o|
G|---------------------------------------------------------------------------|
D|--0-0-0-0-0-0-0-0-5-5-5-5-5-5-5-5------------------------------------------|
A|o-0-0-0-0-0-0-0-0-5-5-5-5-5-5-5-5-----------------------------------------o|
D|--0-0-0-0-0-0-0-0-5-5-5-5-5-5-5-5------------------------------------------|

pre chorus
e|---------------------------------------------------------------------------|
B|---------------------------------------------------------------------------|
G|---------------------------------------------------------------------------|
D|-5-5-5-5-5-5-5-5-----------------------------------------------------------|
A|-5-5-5-5-5-5-5-5-----------------------------------------------------------|
D|-5-5-5-5-5-5-5-5-----------------------------------------------------------|

chorus                                                                      4x
e|---------------------------------------------------------------------------|
B|---------------------------------------------------------------------------|
G|---------------------------------------------------------------------------|
D|-0-0-0-0-0-0-0-0-4-4-4-4-4-4-4-4-5-5-5-5-5-5-5-5---------------------------|
A|-0-0-0-0-0-0-0-0-4-4-4-4-4-4-4-4-5-5-5-5-5-5-5-5---------------------------|
D|-0-0-0-0-0-0-0-0-4-4-4-4-4-4-4-4-5-5-5-5-5-5-5-5---------------------------|

ending note
e|---------------------------------------------------------------------------|
B|---------------------------------------------------------------------------|
G|---------------------------------------------------------------------------|
D|-0-------------------------------------------------------------------------|
A|-0-------------------------------------------------------------------------|
D|-0-------------------------------------------------------------------------|

| /  slide up
| \  slide down
| h  hammer-on
| p  pull-off
| ~  vibrato
| +  harmonic
| x  Mute note
===============================================================================

Suggest correction
Give kudos to tab author, rate the tab!
1 2 3 4 5
comments
print report bad tab
guest
You may want to rate the tab now too:
select rating
Please do not post tabs as comments. Select "correction" instead!