Oops, an error
Loading. Please wait.

Crack The Shutters Bass Tab

2,987 views 1 this week
no commentswrite comment
1 2 3 4 5
1 last vote to show rating
add to favorites
launch autoscroll
font size
0
reset
guitar tuner
Autoscroll
slow
fast
+/-
esc
set tempo
stop
Help us to improve Ultimate-Guitar.com Take our survey!
×
Author
Crack the Shutters by Snow Patrol

Tuning: Standard

This is a really simple song but still very enjoyable

bass comes in at 0:27

Verse 1:
----------------------------|
----------------------------|
-3--7--8------3--7--8-------|
----------5-3---------------|

pause

chorus 1: x2
------------------------------------------------------------------|
------------------------------------------------------------------|
-3-3-3-3-5-5-5-5-8-8-8-8-8-8-8-8----------------------------------|
---------------------------------5-5-5-5-3-3-3-3-1-1-1-1-1-1-1-1--


verse 2:
-----------------------------------|
-----------------------------------|
-3-3-3-3-7-7-7-7-8-8-8-8-----------|    x3
-------------------------5-5-3-3---|

-------------------------|
-------------------------|
-3-3-3-3-7-7-7-7---------|
-------------------------|


pause

chorus 2: x2
------------------------------------------------------------------|
------------------------------------------------------------------|
-3-3-3-3-5-5-5-5-8-8-8-8-8-8-8-8----------------------------------|
---------------------------------5-5-5-5-3-3-3-3-1-1-1-1-1-1-1-1--|

chorus 2 part 2: x2
-------------------------------------------------------------------|
-------------------------------------------------------------------|
-33333333555555558888888888888888----------------------------------|
---------------------------------55555555333333331111111111111111--|


end on:
A ----3-----

please leave any comments or ratings
Suggest correction
Give kudos to tab author, rate the tab!
1 2 3 4 5
comments
print report bad tab
guest
You may want to rate the tab now too:
select rating
Wanna post a correction for this tab? Suggest correction