Oops, an error
Loading. Please wait.

Grazed Knees Tab

version 2
version 2

Whole song

Interactive

10,487 views 1 this week
2 commentsread comments
1 2 3 4 5
x 4
add to favorites
launch autoscroll
font size
0
reset
how to read this tab
guitar tuner
Autoscroll
slow
fast
+/-
esc
set tempo
stop
Help us to improve Ultimate-Guitar.com Take our survey!
×
Author
Difficulty
novice
Mostly, I agree with the other tab, but it's easier if you play it like this:

Use your 4th finger to play the 3 on the D string, and your 2nd for the 1 on the B 
 Then you just have to put your first finger down on the 5th string to play the next note. 
there it's just normal power chords.  Great song.

e-----------------|-----------------|-----------------|-----------------|
b-----1-----1-----|-----1-----1-----|-----------------|-----------------|
g-----------------|-----------------|-----------------|-----------------|
d---3-----3-----3-|---3-----3-----3-|-----3-----3-----|-----3-----3-----|
a-0-----0-----0---|-1-----1-----1---|---3-----3-----3-|---3-----3-----3-|
E-----------------|-----------------|-1-----1-----1---|-1-----1-----1---|

I think there's also a part where he plays:
e-----------------|-----------------|-----------------|-----------------|
b-----1-----1-----|-----1-----1-----|-----------------|-----------------|
g-----------------|-----------------|-----------------|-----------------|
d---3-----3-----3-|---3-----3-----3-|-----3-----3-----|-----3-----3-----|
a-0-----0---------|-1-----1---------|---3-----3-----3-|---3-----3-----3-|
E-----------------|-----------------|-1-----1---------|-1-----1---------|

Chorus:

e-----------------|-----------------|---------------------------------|
b-----------------|-----------------|---------------------------------|
g-----5-----5-----|-----3-----3-----|-----5-----5----/3---------------|
d---5-----5-----5-|---3-----3-----3-|---5-----5------/3---------------|
a-3-----3-----3---|-1-----1-----1---|-3-----3--------/1---------------|
E-----------------|-----------------|---------------------------------|


Snow Patrol is awesome!
Suggest correction
comments
print report bad tab
2 comments total.
0 reply
akilliath 10 Jul 28, 2007 05:13 PM

e-----------------|-----------------|-----------------|-----------------|
b-----------------|-----------------|-----------------|-----------------|
g-----5-----5-----|-----5-----5-----|-----------------|-----------------|
D---3-----3-----3-|---3-----3-----3-|-----3-----3-----|-----3-----3-----|
A-0-----0-----0---|-1-----1-----1---|---3-----3-----3-|---3-----3-----3-|
E-----------------|-----------------|-1-----1-----1---|-1-----1-----1---|


I think you'll find that is the correct begginging.

0 reply
paddy2392 10 Jul 25, 2009 06:17 PM

akilliath u might be right, but stretching from first fret to fifth in the second bar of your version is needlessly difficult when the original tab sounds fine.

guest
You may want to rate the tab now too:
select rating
Wanna post a correction for this tab? Suggest correction