Oops, an error
Loading. Please wait.

Hands Open Tab

version 2
version 2

Whole song

Interactive

11,033 views 1 this week
2 commentsread comments
1 2 3 4 5
x 7
add to favorites
launch autoscroll
font size
0
reset
how to read this tab
guitar tuner
Autoscroll
slow
fast
+/-
esc
set tempo
stop
Help us to improve Ultimate-Guitar.com Take our survey!
×
Author
Difficulty
novice
-----------------------------------------------------------------------------
                             Hands Open - Snow Patrol
-----------------------------------------------------------------------------
Tabbed by:joeBALLER011
Email:horsedude22@aol.com

Tuning:
Intro
e|----------------------------------------------|
B|----------------------------------------------|
G|--------88-----------88-----------------------|
D|--55-33-88-88--55-33-88-88--------------------|
A|--55-33-66-88--55-33-66-88--------------------|
E|--33-11----66--33-11----66--------------------|

Verse 1
       Its Hard to Argue when           You wont stop making sense
e|---------------------------------------------------------------------|
B|---------------------------------------------------------------------|
G|------------------8-8---------------------------------8-8------------|
D|--5-5-----3-3-----8-8-------8-8----5-5------3-3-------8-8--------8-8-|
A|--5-5-----3-3-----6-6-------8-8----5-5------3-3-------6-6--------8-8-|
E|--3-3-----1-1---------------6-6----3-3------1-1------------------6-6-|

       But My Tongue Still Misbehaves and it keeps diggin' my own grave
e|-------------------------------------------------------------------------|
B|-------------------------------------------------------------------------|
G|------------------8-8--------------------------------8-8-----------------|
D|--5-5----3-3------8-8-----8-8-----5-5------3-3-------8-8--------8-8------|
A|--5-5----3-3------6-6-----8-8-----5-5------3-3-------6-6--------8-8------|
E|--3-3----1-1--------------6-6-----3-3------1-1------------------6-6------|

Chorus
    With My  Hands  Open        And My Eyes Open
e|-------------------------------------------------------------------|
B|-------------------------------------------------------------------|
G|---------------------8888--------------------8888------------------|
D|---------5555--3333--8888--8888--5555--3333--8888--8888------------|
A|---------5555--3333--6666--8888--5555--3333--6666--8888------------|
E|---------3333--1111--------6666--3333--1111--------6666------------|

    I just   Keep Hopin'     That Your Heart Opens
e|-------------------------------------------------------------------------|
B|-------------------------------------------------------------------------|
G|---------------------8888--------------------8888------------------------|
D|---------5555--3333--8888--8888--5555--3333--8888--8888------------------|
A|---------5555--3333--6666--8888--5555--3333--6666--8888------------------|
E|---------3333--1111--------6666--3333--1111--------6666------------------|

Verse 2:
Why Would I sabotage
the best thing that i have
well it makes it easier
to know exactly what i want

Verse 3:(No Guitar)
Put tough young stevens
and we'll play your favorite song
chicago bursts to life
and you sweet smile remembers you my...

| /  slide up
| \  slide down
| h  hammer-on
| p  pull-off
| ~  vibrato
| +  harmonic
| x  Mute note
=============================================================================
Suggest correction
comments
print report bad tab
2 comments total.
0 reply
rossgwalker 10 Mar 17, 2007 01:15 AM

hands opem at some parts it was accurate at others it wasnt

+1 reply
el_jedo 20 Apr 23, 2008 07:10 PM

Isn't it "put Sufjan Stevens on..."? Good tab though

guest
You may want to rate the tab now too:
select rating
Wanna post a correction for this tab? Suggest correction