Oops, an error
Loading. Please wait.

If Theres A Rocket Tie Me To It Tab

version 1
version 1

Whole song

6,981 views 3 this week
2 commentsread comments
1 2 3 4 5
accurate
x 4
add to favorites
launch autoscroll
font size
0
reset
how to read this tab
guitar tuner
Tab Pro tools
  • play this tab
  • loop segment
  • change instrument
  • show fretboard
  • metronome
×
Best way to learn
"If Theres A Rocket Tie Me To It"
Autoscroll
slow
fast
+/-
esc
set tempo
stop
Contributor
-------------------------------------------------------------------------------
                             'If There's A Rocket Tie Me To It,' by Snow Patrol
-------------------------------------------------------------------------------
Tabbed by:dez15
Email:vo_debra@hotmail.com

Tuning:Standard


Intro (0.28-0.41)
e|---------------------------------------------------------------------------|
B|---------------------------------------------------------------------------|
G|---7---9---0---2---7---9---0---2---7---9---0---2---7---9---0---2-----------|
D|---------------------------------------------------------------------------|
A|---------------------------------------------------------------------------|
E|---------------------------------------------------------------------------|


Verse (0.42-1.41)
e|---------------------------------------------------------------------------|
B|---------------------------------------------------------------------------|
G|---4-4-4-4-4-4-4-4----2-2-2-2----0-0-0-0-----------------------------------|
D|----5-5-5-5-5-5-5-5----3-3-3-3----3-3-3-3--------x5------------------------|
A|---------------------------------------------------------------------------|
E|---------------------------------------------------------------------------|

e|---------------------------------------------------------------------------|
B|---------------------------------------------------------------------------|
G|--9--9--9--9--9--9--9--9--9--9--9--9--9--9--9------------------------------|
D|---10-10-10-10-10-10-10-10-10-10-10-10-10-10-10----------------------------|
A|---------------------------------------------------------------------------|
E|---------------------------------------------------------------------------|

e|---------------------------------------------------------------------------|
B|---------------------------------------------------------------------------|
G|---4-4-4-4-4-4-4-4----2-2-2-2----0-0-0-0-----------------------------------|
D|----5-5-5-5-5-5-5-5----3-3-3-3----3-3-3-3--------x5------------------------|
A|---------------------------------------------------------------------------|
E|---------------------------------------------------------------------------|


Chorus (1.42-2.10)
e|---------------------------------------------------------------------------|
B|---------------------------------------------------------------------------|
G|---9------4------2---------------------------------------------------------|
D|---10-----5------3-----x4--------------------------------------------------|
A|---10-----5------3---------------------------------------------------------|
E|---------------------------------------------------------------------------|

Verse 2 (2.11-2.38)
e|---------------------------------------------------------------------------|
B|---------------------------------------------------------------------------|
G|-----4----2----------------------------------------------------------------|
D|-----5----3------x4--------------------------------------------------------|
A|-----5----3----------------------------------------------------------------|
E|---------------------------------------------------------------------------|

Bridge (3.03-3.32)
e|---------------------------------------------------------------------------|
B|---------------------------------------------------------------------------|
G|---9------4------2---------------------------------------------------------|
D|---10-----5------3-----x4--------------------------------------------------|
A|---10-----5------3---------------------------------------------------------|
E|---------------------------------------------------------------------------|

Chorus 2 (3.32-4.00)
e|---------------------------------------------------------------------------|
B|---------------------------------------------------------------------------|
G|---9------4------2---------------------------------------------------------|
D|---10-----5------3-----x4--------------------------------------------------|
A|---10-----5------3---------------------------------------------------------|
E|---------------------------------------------------------------------------|



| /  slide up
| \  slide down
| h  hammer-on
| p  pull-off
| ~  vibrato
| +  harmonic
| x  Mute note
===============================================================================
comments
print report bad tab
2 comments total.
-1 reply
A Glass Of Milk wrote on December 14 2008, 12:33 am

well, good start with the intro.

however, ive seen gary play it on the dvd, he plucks more strings than the 2 you have there. and your chords seem a touch off.

good try but dude. :)

0 reply
MarkBuchan1 wrote on March 28 2009, 04:59 pm

great tab
cant fault it
sounds perfect :)
awesome

I want to post or [tab]
guest
You may want to rate the tab now too:
select rating
Please do not post tabs as comments. Select "correction" instead!