Oops, an error
Loading. Please wait.

Its Beginning To Get To Me Tab

5,668 views 9 this week
no commentswrite comment
1 2 3 4 5
x 6
add to favorites
launch autoscroll
font size
0
reset
how to read this tab
guitar tuner
Autoscroll
slow
fast
+/-
esc
set tempo
stop
Help us to improve Ultimate-Guitar.com Take our survey!
×
Author
This is the tab for the rythym guitar
so yeah!!!!!
hopefully its approved

---------------------------------------------------------------------------
        It's Begginning To Get To Me- Snow Patrol
---------------------------------------------------------------------------
Tabbed by: Chris Zecchin
Email:cwzecchin@optusnet.com.au

Tuning: Standard

INTRO:
e|--------------------------------------------------------------------------|
B|--------------------------------------------------------------------------|
G|----9------------------------------9------2------4------2-----------------|
D|----9-x24(slowly getting louder)---9-x16--2-x16--4-x16--2-x16-------------|
A|----7------------------------------7------0------2------0-----------------|
E|--------------------------------------------------------------------------|

VERSE:
e|--------------------------------------------------------------------------|
B|--------------------------------------------------------------------------|
G|--9------7------6------9--------------------------------------------------|
D|--9-x16--7-x16--6-x16--9-x16----------------------------------------------|
A|--7------5------4------7--------------------------------------------------|
E|--------------------------------------------------------------------------|

CHORUS:
e|---(0)-----(0)-----(0)-----(0)--------------------------------------------|
B|---(0)-----(0)-----(0)-----(0)--------------------------------------------|
G|----6-------4-------2-------9---------------------------------------------|
D|----6-x16---4-x16---2-x16---9-x16-----------------------------------------|
A|----4-------2-------0-------7---------------------------------------------|
E|---(0)-----(0)-----(0)-----(0)--------------------------------------------|

OUTRO:
e|--------------------------------------------------------------------------|
B|--------------------------------------------------------------------------|
G|----9------2------4------2------------------------------------------------|
D|----9-x16--2-x16--4-x16--2-x16--------------------------------------------|
A|----7------0------2------0------------------------------------------------|
E|--------------------------------------------------------------------------|

STRUCTURE OF THE SONG:
Intro  x1
Verse  x4
Chorus x2
Verse  x2
Chorus x4
Outro  x5

For the chorus the (0) are not needed to be played but i use them when i play it as it 
the chorus a more distinct lift from the verse and suits the song better.
Suggest correction
comments
print report bad tab
guest
You may want to rate the tab now too:
select rating
Wanna post a correction for this tab? Suggest correction