Oops, an error
Loading. Please wait.

Just Say Yes Tab

15,768 views 3 this week
1 commentread comment
1 2 3 4 5
please rate
add to favorites
launch autoscroll
font size
0
reset
how to read this tab
guitar tuner
Autoscroll
slow
fast
+/-
esc
set tempo
stop
Help us to improve Ultimate-Guitar.com Take our survey!
×
Difficulty
novice
About 0:50 play (clean w/ delay)

--------------------------------------------------------------------------|
-----------------------------------9-9-9-9-7-9-10-10-10-10-10-10-10-10-10-|
-----------9-9-9-9-9-9-9-9-9-9-9-9----------------------------------------|
-9-9-9-7-7----------------------------------------------------------------|
--------------------------------------------------------------------------|
--------------------------------------------------------------------------|

About 0:58 play (clean w/ delay)

-9-9-9-7-7-12-12-12-9-9-9-7-7-12-12-12-4-4-4-4-4-2-4-5-5-5-5-5-5-5-5------|
--------------------------------------------------------------------------|
--------------------------------------------------------------------------|
--------------------------------------------------------------------------|
--------------------------------------------------------------------------|
--------------------------------------------------------------------------|

Chorus about 1:07 (w/ light distortion, no delay)

-------------------------------------------------------------------------|
-------------------------------------------------------------------------|
-------------------------------------------------------------------------|
-7---------7---------7---------7-----------------------------------------| x2
-7---x16---5---x16---4---x16---5---x16-----------------------------------|
-5-----------------------------------------------------------------------|

And that's pretty much it just repeat at the right times. Listen to the song to know 
parts to play where.
Suggest correction
Give kudos to tab author, rate the tab!
1 2 3 4 5
comments
print report bad tab
1 comment total.
0 reply
james23222000 10 wrote on December 19 2010, 11:23 am

Correction for the chorus, whilst the chords are right, the number of times you play each chord is incorrect.


Chorus

-------------------------------------------------------------------------|
-------------------------------------------------------------------------|
-------------------------------------------------------------------------|
-7---------7---------7---------7-----------------------------------------| x2
-7---x8---5---x8---4---x8---5---x8-----------------------------------|
-5-----------------------------------------------------------------------|

guest
You may want to rate the tab now too:
select rating
Please do not post tabs as comments. Select "correction" instead!