Oops, an error
Loading. Please wait.

Lifening Tab

7,711 views 12 this week
3 commentsread comments
1 2 3 4 5
excellent!
x 7
add to favorites
launch autoscroll
font size
0
reset
how to read this tab
guitar tuner
Autoscroll
slow
fast
+/-
esc
set tempo
stop
Help us to improve Ultimate-Guitar.com Take our survey!
×
Author
Difficulty
DomRusky 540
novice
Standard Tuning
No Capo

The backing chords for the song are:

E |X|    F#m |X|    D |X|    A |X|
  |0|        |0|      |3|      |2|
  |1|        |2|      |2|      |2|
  |2|        |4|      |0|      |2|
  |2|        |4|      |0|      |0|
  |0|        |0|      |X|      |X|

====================================

Tab: (repeated all the way through, listen out for stops and starts)

e|----------------------------------------------------|
B|-----9------9---------------9------9----------------|
G|----9------9-----9---------9------9------9----------|
D|----------------------------------------------------|
A|--7------7------7--------9------9------9------------|
E|----------------------------------------------------|

then..

e|----------------------------------------------------|
B|-----9------9---------------9------9----------------|
G|----9------9-----9---------9------9------9----------|
D|----------------------------------------------------|
A|--5------5------5-----------------------------------|
E|-------------------------5------5------5------------|
***OR***
e|----------------------------------------------------|
B|-----9------9---------------9------9----------------|
G|----9------9-----9---------9------9------9----------|
D|--0------0------0-----------------------------------|
A|-------------------------0------0------0------------|
E|----------------------------------------------------|
(both the last two bars sound the same, they're just different ways of playing them.. 
choose the easiest for you)

Tip: If you've got small hands or prefer not to stretch, you might want to put a capo on
at 5 or play the second version of the last bar. This is just so that you don't have to 
keep stretching down and can play the
strings open instead (with a capo this obviously means you can't play the chords though).

Rate & Reply! DR~
Suggest correction
What's this?
You can suggest a correction to this tab. Community and Mods will review your correction and vote to approve or reject it.
comments
print report bad tab
3 comments total.
0 reply
adamfaux85 11 wrote on May 18 2012, 05:26 am

Mate, thank you soooo much for tabbing this out! I've been trying to learn it from watching live videos on youtube but none of them are clear enough. Much appreciated! Going to try this out as soon as I get out of work! Thanks again! Adam

0 reply
DomRusky 540 wrote on May 18 2012, 05:42 am

Me too! Id been looking for ages like you and after messing about with my guitar for a bit I luckily just got it- no worries mate!

+1 reply
Steltti 124 wrote on June 20 2012, 10:13 am

A hand upon my forehead
A joke and then a laugh
Waking up in your arms
A place to call my own

This is all I ever wanted from life
This is all I ever wanted from life
This is all I ever wanted from life

Ireland in the World Cup
Either North or South
The fan club on the jukebox
The birds and yes the bees

This is all I ever wanted from life
This is all I ever wanted from life
This is all I ever wanted from life

Words of reassurance

But only if they're true
Just some simple kindness
[From: http://www.elyrics.net/read/s/snow-patrol-lyrics/life,,ning-lyrics.html]
No vengeance from the Gods

This is all I ever wanted from life
This is all I ever wanted from life
This is all I ever wanted from life

To share what I've been given
Some kids eventually
And (?) than what I've had
A father like my dad

This is all I ever wanted from life
This is all I ever wanted from life
This is all I ever wanted from life

This is all I ever wanted from life
This is all I ever wanted from life
This is all I ever wanted from life

guest
You may want to rate the tab now too:
select rating
Please do not post tabs as comments. Select "correction" instead!