Oops, an error
Loading. Please wait.

Never Gonna Fall In Love Again Tab

1,795 views 1 this week
no commentswrite comment
1 2 3 4 5
please rate
add to favorites
launch autoscroll
font size
0
reset
how to read this tab
guitar tuner
Autoscroll
slow
fast
+/-
esc
set tempo
stop
Help us to improve Ultimate-Guitar.com Take our survey!
×
Author
Difficulty
Paul Lambeth 1,814
novice
Never Gonna Fall In Love Again
by Snow Patrol (off the album "When it's all over we still have to clear up")
Tabbed by ear by Paul Lambeth.

This song's got a lot of fading in and out of different instruments, I'll do my best to 
all of them correctly :). I love this song as I do most of the tracks on this album.
I've put each instrument in order of what point it comes in and fades out, I think it's 
an easy way to do it.

_____________________________________________________________________________

Whippy Synth[0:00]

e|--------------------------------------------------------------|
B|-15--15\8---8/15--15\8---8/15-15-15-15\8---8/15-15-15-15-15\8-|
G|--------------------------------------------------------------|
D|--------------------------------------------------------------|
A|--------------------------------------------------------------|
E|--------------------------------------------------------------|

e|--------------------------------------------------------------------------|
B|-8/15-15-15-15\8---8/15-15-15-15\8---8/15-15-15-15-15\8---8/15-15-15-15\8-|
G|--------------------------------------------------------------------------|
D|--------------------------------------------------------------------------|
A|--------------------------------------------------------------------------|
E|--------------------------------------------------------------------------|

e|------|
B|-8/15-|
G|------| (As fuzzy synth kicks in)
D|------|
A|------|
E|------|

This then plays this riff for most of the song, at about [0:16] when the fuzzy synth 
in:
e|-----------------|
B|-8/15-15-15-15\8-|
G|-----------------|
D|-----------------|
A|-----------------|
E|-----------------|


At the end of the song (past [2:01]), this is the only instrument playing. It finishes with:

e|--------------------|
B|-8/15--15-15--15-15-|
G|--------------------|
D|--------------------|
A|--------------------|
E|--------------------|


_____________________________________________________________________________

Electric Guitar[0:01]

e|---------|
B|---------|
G|---------|
D|---------|
A|-5--/--7-|
E|-3--/--5-|
  PM    PM

This is played 27 times per power chord I *think*, correct me if it's different, but 
hard keeping count. There's a bit of distortion to this guitar too.

It finishes at [2:01] with the first chord let ring.
_____________________________________________________________________________

Fuzzy Synth[0:16]

e|-----------------|
B|-----------------|
G|---4-5-7-4-5-7-4-|
D|-5---------------|
A|-----------------|
E|-----------------|

This loops throughout the whole song from this point until [2:01], when it finishes with:

e|-------------------|
B|-------------------|
G|---4-5-7-4-5-7-4---|
D|-5---------------5-|
A|-------------------|
E|-------------------|


_____________________________________________________________________________

Distorted Bass[1:00]

G|--------------------------------------------------------------------|
D|---------------------3-5--------------------------------3-5---------|
A|-------------3-5-5-5----------------------------3-5-5-5-------------| x2
E|-3-3-3-3-3-3-------------3-3-3-3----3-3-3-3-3-3-------------3-3-3-3-|

G|--------------------------------------------------------------------|
D|---------------------5-7--------------------------------5-7---------|
A|-------------5-7-7-7----------------------------5-7-7-7-------------| x2
E|-5-5-5-5-5-5-------------5-5-5-5----5-5-5-5-5-5-------------5-5-5-5-|

This riff loops throughout the song from this point until [2:01], finishing with a 3rd 
E string.

_____________________________________________________________________________

Clean-as-a-whistle Synth[1:46]

e|---------10------------|
B|------10----10-12------|
G|-12---------------12---|
D|-----------------------|
A|-----------------------|
E|-----------------------|

This again loops until it cuts out at [2:01] :).

_____________________________________________________________________________

Lyrics:

(Haha, I love this bit, I don't think it's supposed be included but in the background 
proclaims "I do remember where it is!")

Something snapped me out of a dream that I was having
I'd fallen down an elevator shaft but now I'm back again
Tidying
(Never gonna fall in love again)
Up after the fight we had
(Never gonna fall in love again)

Happy with yourself well you've never looked so satisfied
Teasing me with stuff like a spoiled little brother
You finished yet?
(Never gonna fall in love again)
Have you got what you really want?
(Never gonna fall in love again)

I'm never gonna fall in love again
I'm never gonna fall in love again
I'm never gonna fall in love again
I'm never gonna fall in love again

I'm never gonna fall in love again
I'm never gonna fall in love again
I'm never gonna fall in love again
I'm never gonna fall in love again

I'm never gonna fall in love again
I'm never gonna fall in love again
I'm never gonna fall in love again
I'm never gonna fall in love again

I'm never gonna fall in love again
I'm never gonna fall in love again
I'm never gonna fall in love again
I'm never gonna fall in love again

_____________________________________________________________________________

Key:
/       - Slide up
\       - Slide down
b       - Bend
r       - Return
x       - Mute
PM      - Palm mute
~       - Let ring/vibrato
h       - Hammer-on
p       - Pull-off
Suggest correction
What's this?
You can suggest a correction to this tab. Community and Mods will review your correction and vote to approve or reject it.
comments
We did not receive enough feedback on this tab! Please rate:
print report bad tab
1 2 3 4 5
guest
You may want to rate the tab now too:
select rating
Please do not post tabs as comments. Select "correction" instead!