Oops, an error
Loading. Please wait.

Open Your Eyes Tab

version 2
version 2

Interactive

Video

31,295 views 6 this week
1 commentread comment
1 2 3 4 5
accurate
x 5
add to favorites
launch autoscroll
font size
0
reset
how to read this tab
guitar tuner
Autoscroll
slow
fast
+/-
esc
set tempo
stop
Help us to improve Ultimate-Guitar.com Take our survey!
×
Author
Difficulty
novice
Eyes Open - Snow Patrol
Track 10 - Open Your Eyes

High Drop D
Best For Acoustic Guitar

d (Down)
b
g
d
a
e

CHORDS

    G5     C/G5   E/G5
d|---0------0------0------|
b|---3------3------3------|
g|---0------0------0------|
d|---x------x------x------|
a|---x------3------x------|
e|---x------x------0------|

The reason I have included so many mutes is that you can just keep you fingers in the
position and mute and release the necessary strings!

This song is very simple so I won't insult your intelligence by putting the chords all
way through as you will get the idea very quickly!  The rhythm is obviously just straight
all the way!

VERSE 1

G5             C/G5
All this feels strange and untrue

      E/G5                     £/G5
And I won't waste a minute without you

G5                C/G5
My bones ache, my skin feels cold

        E/G5                    C/G5
And I'm getting so tired and so old

The anger swells in my guts
And I won't feel these slices and cuts
I want so much to open your eyes
Cos I need you to look into mine

ELECTRIC RIFF (From 1st Chorus)

d|---9---9---9---9--|
b|--8---8---8---8---|
g|-7---7---7---7----|
d|------------------|
a|------------------|
e|------------------|

(Repeat until bridge)

CHORUS

G5                  C/G5
Tell me that you'll open your eyes

E/G5                C/G5
Tell me that you'll open your eyes

G5                  C/G5
Tell me that you'll open your eyes

E/G5                C/G5
Tell me that you'll open your eyes


Get up, get out, get away from these liars
Cos they don't get your soul or your fire
Take my hand, knot your fingers through mine
And we'll walk from this dark room for the last time


Every minute from this minute now
We can do what we like anywhere
I want so much to open your eyes
Cos I need you to look into mine


CHORUS

Tell me that you'll open your eyes (x8)
Tell me that you'll open your eyes
Tell me that you'll open your eyes
Tell me that you'll open your eyes
Tell me that you'll open your eyes
Tell me that you'll open your eyes
Tell me that you'll open your eyes
Tell me that you'll open your eyes

BRIDGE

d|----------------------------------------------------|
b|-15-15-15--13-13-13--12-12-12-10-10-10-10-10-10-10--|
g|-x--x--x---x--x--x---x--x--x--x--x--x--x--x--x--x---| (x24)
d|-12-12-12--10-10-10--9--9--9--7--7--7--7--7--7--7---|
a|----------------------------------------------------|
e|----------------------------------------------------|


All this feels strange and untrue
And I won't waste a minute without you

Tabed by Adrew and a Braindead Monkey
Suggest correction
What's this?
You can suggest a correction to this tab. Community and Mods will review your correction and vote to approve or reject it.
comments
print report bad tab
1 comment total.
0 reply
Revlin 773 wrote on May 25 2006, 06:56 pm

It's all perfect except for one tiny thing...

d|---------------------------------------------|
b|-15-15-15--13-13-13--12-12-12-9-9-9-9-9-9-9--|
g|-x--x--x---x--x--x---x--x--x--x-x-x-x-x-x-x--| (x24)
d|-12-12-12--10-10-10--9--9--9--7-7-7-7-7-7-7--|
a|---------------------------------------------|
e|---------------------------------------------|

That last note;
It should be:

d|----------------------------------------------------|
b|-15-15-15--13-13-13--12-12-12-10-10-10-10-10-10-10--|
g|-x--x--x---x--x--x---x--x--x--x--x--x--x--x--x--x---| (x24)
d|-12-12-12--10-10-10--9--9--9--7--7--7--7--7--7--7---|
a|----------------------------------------------------|
e|----------------------------------------------------|

guest
You may want to rate the tab now too:
select rating
Please do not post tabs as comments. Select "correction" instead!