Oops, an error
Loading. Please wait.

Open Your Eyes Tab

version 4
version 4

Interactive

Video

13,805 views 3 this week
no commentswrite comment
1 2 3 4 5
please rate
add to favorites
launch autoscroll
font size
0
reset
how to read this tab
guitar tuner
Autoscroll
slow
fast
+/-
esc
set tempo
stop
Help us to improve Ultimate-Guitar.com Take our survey!
×
Difficulty
novice
Artist - Snow Patrol
Track Name - Open Your Eyes
Album - Eyes Open

This is the first song i have ever tabbed but i think its ok.  If you have any questions 
me on: daniel.ball@ukonline.co.uk

Dan


e/ -----------------------------/
b/ -----------------------------/
g/ ----------5-----------5------/
d/ ----5-----5-x16-2-----5-x16--/
a/ ----5-x16-3-----2-x16-3------/
E/ ----3-----------0------------/

   Do this for the most of the song untill the instrumental solo which is;

e/ --------------------------------------------/
b/ --------------------------------------------/
g/ ----12-12-12-10-10-10-9-9-9-7-7-7-7-7--7----/
d/ -----x--x--x--x--x--x-x-x-x-x-x-x-x-x--x----/  x2
a/ ----10-10-10--8--8--8-7-7-7-5-5-5-5-5--5----/
E/ --------------------------------------------/

   then

e/ --------------------------------------------/
b/ --------------------------------------------/
g/ ----14-14-14-12-12-12-10-10-10-9-9-9-9-9--9-/
d/ -----x--x--x--x--x--x--x--x--x-x-x-x-x-x--x-/
a/ ----12-12-12-10-10-10--8--8--8-7-7-7-7-7--7-/
E/ --------------------------------------------/

   then this again but just the once


e/ --------------------------------------------/
b/ --------------------------------------------/
g/ ----12-12-12-10-10-10-9-9-9-7-7-7-7-7--7----/
d/ -----x--x--x--x--x--x-x-x-x-x-x-x-x-x--x----/
a/ ----10-10-10--8--8--8-7-7-7-5-5-5-5-5--5----/
E/ --------------------------------------------/

   And finally end with this again but just once.

e/ -----------------------------/
b/ -----------------------------/
g/ ----------5-----------5------/
d/ ----5-----5-x16-2-----5-x16--/
a/ ----5-x16-3-----2-x16-3------/
E/ ----3-----------0------------/

   Thanks enjoy
Suggest correction
Give kudos to tab author, rate the tab!
1 2 3 4 5
comments
print report bad tab
guest
You may want to rate the tab now too:
select rating
Please do not post tabs as comments. Select "correction" instead!