Oops, an error
Loading. Please wait.

Open Your Eyes Tab

version 6
version 6

Interactive

Video

9,313 views 3 this week
3 commentsread comments
1 2 3 4 5
accurate
x 3
add to favorites
launch autoscroll
font size
0
reset
how to read this tab
guitar tuner
Autoscroll
slow
fast
+/-
esc
set tempo
stop
Help us to improve Ultimate-Guitar.com Take our survey!
×
Contributor
Difficulty
autogav 266
novice
there are a few around but this is spot on, awesome to play with a couple of mates. try it

e -------------|
b -------------|
g -------------|  x4
d -12-12-12-12-|
a -10-10-10-10-|
e -------------|

e -------------|
b -------------|
g -------------|  x4
d -12-12-12-12-|
a -10-10-10-10-|
e --8--8--8--8-|

e -------------|
b -------------|
g -------------|  x4
d -12-12-12-12-|
a -10-10-10-10-|
e --0--0--0--0-|

e -------------|
b -------------|
g -------------|  x4
d -12-12-12-12-|
a -10-10-10-10-|
e --8--8--8--8-|

this riff continues throughout the whole song. Play it fast, about 130.

Second riff; this can be either e -------12-  or e ----------|
                                b ----12----     b ----12----|
                                g -12-------     g -12----12-|
                                d ----------     d ----------|
                                a ----------     a ----------|
                                e ----------     e ----------|
i think its the first one. this comes in after the 2nd verse

Further on in the song you get this riff

e -15-15-15-13-13-13-12-12-12-10-10-10--8-8-10-10-------------------|
b --x--x--x--x--x--x--x--x--x--x--x--x--x-x--x--x-------------------|
g -12-12-12-10-10-10--9--9--9--7--7--7--5-5--7--7-------------------|
d ------------------------------------------------------------------|
a ------------------------------------------------------------------|
e ------------------------------------------------------------------|

enjoy, its a great song.
Tip: try changing pick ups on the first riff as the song developes.
comments
We did not receive enough feedback on this tab! Please rate:
print report bad tab
1 2 3 4 5
3 comments total.
0 reply
maverick118 12 wrote on September 7 2008, 08:45 pm

Hey, good tab to a straight forward track, just thought i'd chip in my two cents;
From listening to the track it seems that the '2nd riff' you've tabbed, whatever fret it's on etc, doesn't go low-middle-high as you suggest, but rather low-high-middle...if that makes sense...

Also, i think the last riff you've tabbed is played one string up, so it should look like:

e ------------------------------------------------------------------|
b -15-15-15-13-13-13-12-12-12-10-10-10--8-8-10-10-------------------|
g --x--x--x--x--x--x--x--x--x--x--x--x--x-x--x--x-------------------|
d -12-12-12-10-10-10--9--9--9--7--7--7--5-5--7--7-------------------|
a ------------------------------------------------------------------|
e ------------------------------------------------------------------|

Thats just what i think though, feel free to disagree!

0 reply
maverick118 12 wrote on September 7 2008, 08:45 pm

Hey, good tab to a straight forward track, just thought i'd chip in my two cents;
From listening to the track it seems that the '2nd riff' you've tabbed, whatever fret it's on etc, doesn't go low-middle-high as you suggest, but rather low-high-middle...if that makes sense...

Also, i think the last riff you've tabbed is played one string up, so it should look like:

e ------------------------------------------------------------------|
b -15-15-15-13-13-13-12-12-12-10-10-10--8-8-10-10-------------------|
g --x--x--x--x--x--x--x--x--x--x--x--x--x-x--x--x-------------------|
d -12-12-12-10-10-10--9--9--9--7--7--7--5-5--7--7-------------------|
a ------------------------------------------------------------------|
e ------------------------------------------------------------------|

Thats just what i think though, feel free to disagree!

0 reply
autogav 266 wrote on October 27 2009, 06:09 pm

Nah, youre right mate, good job

I want to post or [tab]
guest
You may want to rate the tab now too:
select rating
Please do not post tabs as comments. Select "correction" instead!