Oops, an error
Loading. Please wait.

Please Just Take These Photos Acoustic Tab

2,578 views 1 this week
1 commentread comment
1 2 3 4 5
please rate
add to favorites
launch autoscroll
font size
0
reset
how to read this tab
guitar tuner
Autoscroll
slow
fast
+/-
esc
set tempo
stop
Help us to improve Ultimate-Guitar.com Take our survey!
×
Author
Capo
7th fret
Right this is easy to play and sounds cool...

**CAPO 7**
sAME CHORDS THROUGHOUT


e----------------------------------------------------|
B----------------------------------------------------|
G----------------------------------------------------|
D--11-11-11-11-11-11-11-11-11-11-11-11-11-11-11-11---|
A--11-11-11-11-11-11-11-11-11-11-11-11-11-11-11-11---|
E--9--9--9--9--9--9--9--9--9--9--9--9--9--9--9--9----|


e----------------------------------------------------|
B----------------------------------------------------|
G----------------------------------------------------|
D--11-11-11-11-11-11-11-11-11-11-11-11-11-11-11-11---|
A--9--9--9--9--9--9--9--9--9--9--9--9--9--9--9--9----|
E--11-11-11-11-11-11-11-11-11-11-11-11-11-11-11-11---|


e----------------------------------------------------|
B----------------------------------------------------|
G----------------------------------------------------|
D--11-11-11-11-11-11-11-11-11-11-11-11-11-11-11-11---|
A--9--9--9--9--9--9--9--9--9--9--9--9--9--9--9--9----|
E--0--0--0--0--0--0--0--0--0--0--0--0--0--0--0--0----|


e----------------------------------------------------|
B----------------------------------------------------|
G----------------------------------------------------|
D--11-11-11-11-11-11-11-11-11-11-11-11-11-11-11-11---|
A--9--9--9--9--9--9--9--9--9--9--9--9--9--9--9--9----|
E--11-11-11-11-11-11-11-11-11-11-0--0--0--0--0--0--0-|
Suggest correction
Give kudos to tab author, rate the tab!
1 2 3 4 5
comments
print report bad tab
1 comment total.
0 reply
rachnwonderland 31 wrote on July 13 2010, 03:11 pm

makes it easier if you capo the 9th fret and play like so:

e----------------------------------------------------|
B----------------------------------------------------|
G----------------------------------------------------|
D--11-11-11-11-11-11-11-11-11-11-11-11-11-11-11-11---|
A--11-11-11-11-11-11-11-11-11-11-11-11-11-11-11-11---|
E--0--0--0--0--0--0--0--0--0--0--0--0--0--0--0--0----|

e----------------------------------------------------|
B----------------------------------------------------|
G----------------------------------------------------|
D--11-11-11-11-11-11-11-11-11-11-11-11-11-11-11-11---|
A--0--0--0--0--0--0--0--0--0--0--0--0--0--0--0--0----|
E--11-11-11-11-11-11-11-11-11-11-11-11-11-11-11-11---|

e----------------------------------------------------|
B----------------------------------------------------|
G----------------------------------------------------|
D--11-11-11-11-11-11-11-11-11-11-11-11-11-11-11-11---|
A--0--0--0--0--0--0--0--0--0--0--0--0--0--0--0--0----|
E--0--0--0--0--0--0--0--0--0--0--0--0--0--0--0--0----|

e----------------------------------------------------|
B----------------------------------------------------|
G----------------------------------------------------|
D--11-11-11-11-11-11-11-11-11-11-11-11-11-11-11-11---|
A--0--0--0--0--0--0--0--0--0--0--0--0--0--0--0--0----|
E--11-11-11-11-11-11-11-11-11-11-0--0--0--0--0--0--0-|


(:

guest
You may want to rate the tab now too:
select rating
Wanna post a correction for this tab? Suggest correction