Oops, an error
Loading. Please wait.
16,924 views 21 this week
3 commentsread comments
1 2 3 4 5
x 4
add to favorites
×
Save as Personal and add changes to this tab that will be seen only by you. Learn more ›
×
You can save this tab as Personal to edit and correct it or add notes. All changes will be seen only by you. Learn more »
save as personal
new!
launch autoscroll
font size
0
reset
guitar tuner
backing track
0:00
0:00
Autoscroll
slow
fast
+/-
esc
set tempo
stop
Author
Difficulty
novice
Bass enters after guitars play x2 (Starts at 0:13 same time as drums)

Verse
G:----------------|-----------------|
D:----------------|-----------------|
A:----------3-3-3-|-3-3-3-3-3-5-3-0-|
E:5---5---5-------|-----------------|


Chorus
G:----------------|----------------|----------------|----------------|
D:----------------|----------------|----------------|----------------|
A:3-3-3-3-3-3-3-3-|3-3-3-3-3-3-3-3-|----------------|----------------|
E:----------------|----------------|3-3-3-3-3-3-3-3-|3-3-3-3-3-3-3-3-|

G:----------------|----------------|----------------|----------------|
D:----------------|----------------|----------------|----------------|
A:----------------|----------------|----------------|-------/8-8-8-8-|
E:5-5-5-5-5-5-5-5-|5-5-5-5-5-5/3-3\|1-1-1-1-1-1-1-1-|1-1-1-1---------|

Verse x10
Chorus x2
Verse x2 then break for x2
Verse x2
Chorus play till end of song
Suggest correction
comments
print report bad tab
3 comments total.
0 reply
neoghio 10 Oct 15, 2006 11:23 AM

shudnt it be like this?

Verse
G:----------------|-----------------|
D:----------------|-----------------|
A:----------3-3-3-|-----------------|
E:5---5---5-------|-3-3-3-3-3-5-3-0-|

0 reply
btherl 93 Dec 31, 2006 09:08 PM

Yes it should be.. I think he was slack with proofreading :) Also, there are some variations on the basslines in both the verse and chorus he has not included. I've uploaded another tab which includes those.

I find it hard to hear if that "5" at the verse start is played once or 3 times. It's difficult to tell with the drums matching the beats.

0 reply
thilian16 10 Apr 24, 2009 05:03 AM

Maybe try contacting the band through fan sites or something like that..... Just saying that it might work

guest
You may want to rate the tab now too:
select rating
Wanna post a correction for this tab? Suggest correction