Oops, an error
Loading. Please wait.

Run Tab

version 7
18,836 views 12 this week
6 commentsread comments
1 2 3 4 5
accurate
x 13
add to favorites
launch autoscroll
font size
0
reset
how to read this tab
guitar tuner
Autoscroll
slow
fast
+/-
esc
set tempo
stop
Help us to improve Ultimate-Guitar.com Take our survey!
×
Author
Difficulty
Right, this is 100% correct for the best song of 2004, from one of its best albums.

Intro & Verses

Rhythm- Strict Downstrokes

e|---------------------------------|
b|---------------------------------|
g|-5-5-5-5-5-5-5-5-5-5-5-5-5-5-5-5-|
d|-2-2-2-2-2s3-3-0-0-0-0-0-0-0-0-0-|
a|-0-0-0-0-0-0-0-0-5-5-5-5-5-5-5-5-|
e|-----------------3-3-3-3-3-3-3-3-|

Lead Verse Riff

e|------------------------------|
b|------------------------------|
g|9-9-9-9s7-7-7-7s4-4-4-4s2-2-2-|
d|------------------------------|
a|------------------------------|
e|------------------------------|

Before first chorus-
e|--------------------------------|
b|--------------------------------|
g|9-9-9-9s7-7-7-7s4-4-4-4-5-4-5-5-|
d|--------------------------------|
a|--------------------------------|
e|--------------------------------|

Chorus

Rhythm

Full six string barre chords (Downstrokes Again)

   C      G     Am    F 
e|-8------3-----5-----1----|
b|-8------3-----5-----1----|
g|-9------4-----5-----2----|
d|-10-----5-----7-----3----|
a|-10-----5-----7-----3----|
e|-8--x16-3-x16-5-x16-1-x16|

Lead Part over the top.
e|--------------------------------------------------------------------|
b|-----1-------1--------1-------1--------3-------3--------3--------3--|
g|---0---0---0---0----0---0---0---0----0---0---0---0----0---0----0---0|
d|-2-------2--------2-------2-----------------------------------------|
a|-----------------------------------2-------2--------2--------2------|
e|--------------------------------------------------------------------|

e|--------------------------------------------------------------------|
b|-----1-------1--------1-------1--------1-------1--------1-------1---|
g|---2---2---2---2----2---2---2---2----2---2---2---2----2---2---2---2-|
d|-2-------2--------2-------2--------3-------3--------3-------3-------|
a|--------------------------------------------------------------------|
e|--------------------------------------------------------------------|

Solo (Easy)
  Play this section twice
e|-------------------------------------|--------------------------------
b|-------------------------------------|--------------------------------
g|-10-10s9-9s7-7s9-9-10-10s9-9s7-7s5-5-|-10-10s9-9s7-7s5-5s4-4s2-2-0-0--
d|-------------------------------------|--------------------------------
a|-------------------------------------|--------------------------------
e|-------------------------------------|--------------------------------

e|-------------------------------------|
b|-------------------------------------|
g|-2-2s4-4s5-5s7-7s5-5s7-7s9-9s7-7s5-5-|  Play it all twice.
d|-------------------------------------|
a|-------------------------------------|
e|-------------------------------------|

Thats it

Ive seen so many incomplete or wrong tabs, this is 100% perfect im sure.
Suggest correction
What's this?
You can suggest a correction to this tab. Community and Mods will review your correction and vote to approve or reject it.
comments
print report bad tab
6 comments total. Showing first comments.
0 reply
Daniel#1 14 wrote on January 16 2006, 01:45 pm

Splendid, couldn't have done it better myself

0 reply
gregg freeman 113 wrote on September 23 2006, 05:05 pm

pat on the back

+2 reply
Liam 5,107 wrote on December 14 2006, 06:03 am

thanks for copying most of my tab, you ass.

guest
You may want to rate the tab now too:
select rating
Please do not post tabs as comments. Select "correction" instead!