Oops, an error
Loading. Please wait.

Same Tab

version 2
version 2

Whole song

3,640 views 1 this week
2 commentsread comments
1 2 3 4 5
excellent!
x 5
add to favorites
launch autoscroll
font size
0
reset
how to read this tab
guitar tuner
Autoscroll
slow
fast
+/-
esc
set tempo
stop
Help us to improve Ultimate-Guitar.com Take our survey!
×
Author
Difficulty
intermediate
-->->->->->--------------------------------------------------<-<-<-<-<------
                             Same - Snow Patrol
-->->->->->--------------------------------------------------<-<-<-<-<------
Tabbed by: Dave Grayhl

Tuning: standard
 It starts off with a piano but you can convert this to guitar
with just 3 simple chords;
e|---------| X2
B|---------|
G|---------|
D|-3--3--3-|
A|-1--0--3-|
E|---------|
Verse;
e|------------------------------------------------|
B|------------------------------------------------|
G|------------------------------------------------|
D|-3----3-------3-----------------3-------3------3|
A|-1----0-------3-----------------1-------0------3|
E|------------------------------------------------|
maybe somewhere else will not be half as cold as me

e|-------------------|
B|-------------------|   Bridge. x2
G|--------------0----|
D|---3---3----3----3-|
A|-1---0----3--------|
E|-------------------|

Verse;
e|-------------------------------------------------------------------|
B|-------------------------------------------------------------------|
G|-----------------------------0------------------------------0------|
D|--------3-------3------3--------3----------3-------3------3-----3--|
A|----1------0---------3-----------------1------0-------3------------|
E|-------------------------------------------------------------------|
the curtains drawn the winter sun makes patterns on your face

e|-------------------------------------------------------------------|
B|-------------------------------------------------------------------|
G|---------------------------0------------------------------0--------|
D|--------3-------3------3------3----------3-------3------3-----3----|
A|----1------0---------3-----------------1------0-------3------------|
E|-------------------------------------------------------------------|
It looks like some   kaleidoscopic     breathing exercise


Chorus 1;
          G              Bb Maj       F
e|-------3-3-3-3-3-3----1-1-1-1-1-1---1-1-1-1-1-1-1-1-1-1-1-1----|    X2
B|-------3-3-3-3-3-3----3-3-3-3-3-3---1-1-1-1-1-1-1-1-1-1-1-1----|
G|-------0-0-0-0-0-0----3-3-3-3-3-3---2-2-2-2-2-2-2-2-2-2-2-2----|
D|-------0-0-0-0-0-0----3-3-3-3-3-3---3-3-3-3-3-3-3-3-3-3-3-3----|
A|-------2-2-2-2-2-2----1-1-1-1-1-1---3-3-3-3-3-3-3-3-3-3-3-3----|
E|-------3-3-3-3-3-3------------------1-1-1-1-1-1-1-1-1-1-1-1----|
its the same, its the same, its the same
second time in background "its the same, the same"

Chorus 2;
          G              Bb Maj       F
e|-3-3-3-3-3-3-3-3-3-3-3--1-1-1-1-1-1-1-1-1-1-1-1-|      X2
B|-3-3-3-3-3-3-3-3-3-3-3--3-3-3-3-3-3-3-3-3-3-3-3-|
G|-0-0-0-0-0-0-0-0-0-0-0--3-3-3-3-3-3-3-3-3-3-3-3-|
D|-0-0-0-0-0-0-0-0-0-0-0--3-3-3-3-3-3-3-3-3-3-3-3-|
A|-2-2-2-2-2-2-2-2-2-2-2--1-1-1-1-1-1-3-3-3-3-3-3-|
E|-3-3-3-3-3-3-3-3-3-3-3--------------------------|
baby             wont you breathe

Verse;
Hold me in your freezing arms before we have to go
Bent a little but it's not because I know the truth
The windsheild of your little car is frosted through the glass
The clear heart of air appears as we shiver on the seats
Chorus 1;
It's the same, it's the same, it's the same,
It's the same, it's the same, it's the same 
Chorus 2;
Treat it as a test
Treat it as a test
Baby wont you breathe
Baby wont you breathe
Chorus 1;
It's the same, it's the same, it's the same,
It's the same, it's the same, it's the same.

-=-=-=-=-=-=-=-=-=-=-=-=-=-=-=-=-=-=-==-=-=-=-=-=-=-=-=-=-=-=-=-=-=-=-=-=-=-
Hope you enjoyed. Please rate :D

| /  slide up
| \  slide down
| h  hammer-on
| p  pull-off
| ~  vibrato
| +  harmonic
| x  Mute note
============================================================================
Suggest correction
comments
print report bad tab
2 comments total.
+1 reply
Revlin 565 wrote on June 2 2008, 10:44 pm

Big ups man, I've been dying to play this song for years.

0 reply
Guitar'snow 259 wrote on May 2 2013, 09:43 am

Awh no worries :) such a great song!

guest
You may want to rate the tab now too:
select rating
Please do not post tabs as comments. Select "correction" instead!