Oops, an error
Loading. Please wait.

Set Down Your Glass Chords

21,497 views 30 this week
2 commentsread comments
1 2 3 4 5
excellent!
x 6
add to favorites
launch autoscroll
font size
0
reset
transpose
0
reset
simplify chords
- display chords -
guitar tuner
Tab Pro tools
  • play this tab
  • loop segment
  • change instrument
  • show fretboard
  • metronome
Autoscroll
slow
fast
+/-
esc
set tempo
stop
Contributor
Artist: Snow Patrol
Song: Set Down Your Glass
Album: A Hundred Million Suns

Capo 2

Cadd4:    x33010
Fmaj7:    133210
G6add4:   320010

Intro: C
e|---------0----------0--------|
B|-----------------------------|
G|------0--------0-------------|
D|------3-----3-----3-----3----|  x4
A|---3-------------------------|
E|-----------------------------|

C
 Just close your eyes,         and count to five
Fmaj7  G6add4    Am   G6add4   Fmaj7  G6add4  C
 Let's craft the only thing we know into surprise

C
 Set down your glass, I painted this
Fmaj7  G6       Am      G6    Fmaj7 G6       C
   To look like you and me forever  as we're now

Chorus:
         Fmaj7               G6add4
 And I'm shaking and I'm still
             Am                     G6add4
 When you're eyes meet mine all the simple skills
         Fmaj7          Gadd4    C
 Like to tell you all I want, is now

C
 You say I'm cold, I'm just not the same
Fmaj7 G6add4 Am   G6add4   Fmaj7  G6add4     C
 As I was a  year ago, and each minute since then

C
 My          , as we take it off
Fmaj7 G6add4   Am      G6add4  Fmaj7     G6add4   C
  You say your sold me good as new and I know you will

Chorus
comments
print report bad tab
2 comments total.
0 reply
Rich23 wrote on November 18 2008, 07:18 pm

This is awesome, sounds spot on, thanks!

0 reply
robur77 wrote on November 29 2008, 10:57 am

My simple version of the same song (thanks for the chords!)

Intro:
C
e|-----0-------0---|-----0-------0---|-----0-------0---|-----0-------0---|
B|-----1-----------|-------------1---|-------------1---|-------------1---|
G|---0---0---0---0-|---0---0---0---0-|---0---0---0---0-|---0---0---0---0-|
D|---------3-------|---------3-------|---------3-------|---3-----3-------|
A|-3---------------|-3---------------|-3---------------|-3---------------|
E|-----------------|-----------------|-----------------|-----------------|

Verse 1:
e|-----0-------0---|-----0-------0---|-----0-------0---|-----0-------0---|
B|-------------1---|-------------1---|-------------1---|-------------1---|
G|---0---0---0---0-|---0---0---0---0-|---0---0---0---0-|---0---0---0---0-|
D|---3-----3-------|---3-----3-------|---3-----3-------|---3-----3-------|
A|-3---------------|-3---------------|-3---------------|-3---------------|
E|-----------------|-----------------|-----------------|-----------------|
Just close your eyes, and count to five

e|-----0-------0---|-----0-------0---|-----0-------0---|-----0-------0---|
B|-----1-------1---|-----1-------1---|-----1-------1---|-----1-------1---|
G|---2---2---2---1-|---2---2---2---1-|---2---2---2---3-|---0---0---0---0-|
D|-----------------|-----------------|-----------------|---------3-------|
A|-----------------|-0---------------|-----------------|-3---------------|
E|-1-------3-------|---------3-------|-1-------3-------|-----------------|
Let's craft the only thing we know into sur- prise

e|-----0-------0---|-----0-------0---|-----0-------0---|-----0-------0---|
B|-------------1---|-------------1---|-------------1---|-------------1---|
G|---0---0---0---0-|---0---0---0---0-|---0---0---0---0-|---0---0---0---0-|
D|---3-----3-------|---3-----3-------|---3-----3-------|---3-----3-------|
A|-3---------------|-3---------------|-3---------------|-3---------------|
E|-----------------|-----------------|-----------------|-----------------|
Set down your glass, I painted this

e|-----0-------0---|-----0-------0---|-----0-------0---|-----0-------0---|
B|-----1-------1---|-----1-------1---|-----1-------1---|-----1-------1---|
G|---2---2---2---1-|---2---2---2---1-|---2---2---2---3-|---0---0---0---0-|
D|-----------------|-----------------|-----------------|---------3-------|
A|-----------------|-0---------------|-----------------|-3---------------|
E|-1-------3-------|---------3-------|-1-------3-------|-----------------|
To look like you and me forever as we are now

Chorus:
e|-----0-0-----0-0-|-----0-0-----0-0-|-----0-0-----0-0-|-----0-0-----0-0-|
B|-----1-1-----1-1-|-----1-1-----1-1-|-----1-1-----1-1-|-----1-1-----1-1-|
G|---2-------2-----|---2-------2-----|---2-------2-----|---0-------0-----|
D|-----------------|-----------------|-----------------|-----------------|
A|-----------------|-----------------|-0-------0-------|-----------------|
E|-1-------1-------|-3-------3-------|-----------------|-3-------3-------|
And I'm shaking and I'm still When you're eyes meet mine all the simple skills

e|-----0-0-----0-0-|-----0-0-----0-0-|-----0-------0---|-----0-------0---|
B|-----1-1-----1-1-|-----1-1-----1-1-|-----1-------1---|-----1-------1---|
G|---2-------2-----|---2-------2-----|---0---0---0---0-|---0---0---0---0-|
D|-----------------|-----------------|---------3-------|---------3-------|
A|-----------------|-----------------|-3---------------|-3---------------|
E|-1-------1-------|-3-------3-------|-----------------|-----------------|
Like to tell you all I want, is now

I want to post or [tab]
guest
You may want to rate the tab now too:
select rating
Please do not post tabs as comments. Select "correction" instead!