Oops, an error
Loading. Please wait.

Set Down Your Glass Tab

version 6
version 6
431 views 1 this week
no commentswrite comment
1 2 3 4 5
excellent!
x 2
add to favorites
launch autoscroll
font size
0
reset
how to read this tab
guitar tuner
Tab Pro tools
  • play this tab
  • loop segment
  • change instrument
  • show fretboard
  • metronome
Autoscroll
slow
fast
+/-
esc
set tempo
stop
Contributor
Set Down Your Glass
Snow Patrol

Acoustic guitar, let ring throughout the entire song, standard tuning (eBGDAE)

Tabbed by ben3296 (bptrules@hotmail.com)

This is definitely how they play it on the album, though the 3 on the E string played 
with the 7 on the B string is a big stretch, check out the other tabs of this song if your 
hands are too small, they're not the same as the album version but still sound fine

Song layout
-----------
Intro x2
Verse x2
Chorus
Intro x2
Verse x2
Chorus
Intro
Chorus
Intro x2


Intro
-----
e-|----------------|----------------|
B-|----7-------7---|----7-------7---|
G-|--0---0---0---0-|--0---0---0---0-|
D-|--------7-------|--------7-------|
A-|5---------------|5---------------|
E-|----------------|----------------|


Verse
-----
e-|----------------|----------------|----------------|----------------|
B-|----7-------7---|----7-------7---|----7-------7---|----7-------7---|
G-|--0---0---0---0-|--0---0---0---0-|--0---0---0---0-|--0---0---0---0-|
D-|--------7-------|--------7-------|--------7-------|--------7-------|
A-|5---------------|5---------------|5---------------|5---------------|
E-|----------------|----------------|----------------|----------------|

e-|----------------|----------------|----------------|----------------|----------------|
B-|----7-------7---|----7-------7---|----7-------7---|----7-------7---|----7-------7---|
G-|--0---0---0---0-|--0---0---0---0-|--0---0---0---0-|--0---0---0---0-|--0---0---0---0-|
D-|----------------|----------------|----------------|--------7-------|--------7-------|
A-|----------------|----------------|----------------|5---------------|5---------------|
E-|3-------5-------|7-------5-------|3-------5-------|----------------|----------------|

Chorus
------------------------------------------------------------------------|
e-|----------------|----------------|----------------|------------------|
B-|7---7---7---7---|7---7---7---7---|7---7---7---7---|7---7---7---7-----|
G-|--0---0---0---0-|--0---0---0---0-|--0---0---0---0-|--0---0---0---0---|
D-|----------------|----------------|----------------|------------------|
A-|----------------|----------------|----------------|------------------|
E-|3---3---3---3---|5---5---5---5---|7---7---7---7---|5---5---5---5-----|

e-|----------------|----------------|
B-|7---7---7---7---|7---7---7---7---|
G-|--0---0---0---0-|--0---0---0---0-|
D-|----------------|----------------|
A-|----------------|----------------|
E-|3---3---3---3---|5---5---5---5---|


As I said earlier this is definitely how it is originally played but check out the other 
tabs on here if you can't stretch far enough
Please rate and comment, thanks :)
comments
We did not receive enough feedback on this tab! Please rate:
print report bad tab
1 2 3 4 5
I want to post or [tab]
guest
You may want to rate the tab now too:
select rating
Please do not post tabs as comments. Select "correction" instead!