Oops, an error
Loading. Please wait.

Set The Fire To The Third Bar Tab

version 2
version 2

Whole song

Interactive

45,134 views 30 this week
2 commentsread comments
1 2 3 4 5
excellent!
x 11
add to favorites
launch autoscroll
font size
0
reset
how to read this tab
guitar tuner
Tab Pro tools
  • play this tab
  • loop segment
  • change instrument
  • show fretboard
  • metronome
Autoscroll
slow
fast
+/-
esc
set tempo
stop
Difficulty
novice
Intro: Guitar 1 
E|-------------|
A|-------------|
D|-------------|  x2
G|--------2----| 
B|--5-----0--5-|
E|-7-7-------3-|

1st Verse: Guitar 1  
|-------------|
|-------------|
|-------------|  x16 
|--------2----| 
|--5-----0--5-|
|-7-7-------3-|

Verse: guitar 2 - Distortion

"I touch the place where I'd find your face"

E|----------3-|
A|-4-----2--0-|
D|-4-----2--0-|  x5
G|-4-----2--0-|
B|-2--------2-|
E|----------3-|

Guitar 1

E|-------------|
A|-------------|
D|-------------|  x4
G|--------2----| 
B|--5-----0--5-|
E|-7-7-------3-|

Gutar 2 - Distortion

"There words mostly noises"

E|----------3-|
A|-4-----2--0-|
D|-4-----2--0-|  x4 
G|-4-----2--0-|
B|-2--------2-|
E|----------3-|

Chorus: Guitar 1 or Guitar 2 - Distortion

E|-------------------------------------|
A|-------------------------------------|
D|----------55555555-------------------|
G|-77777777-55555555-55555555-33333333-|  x2
B|-77777777-77777777-55555555-33333333-|
E|-99999999----------77777777-55555555-|

E|----------|
A|----------|
D|----------|
G|-33333333-|
B|-33333333-|
E|-55555555-|


2nd Verse: Guitar 1

|-------------|
|-------------|
|-------------|  x8 
|--------2----| 
|--5-----0--5-|
|-7-7-------3-|

Guitar 2 - Distortion

"And Dreaming pick up from"

E|----------3-|
A|-4-----2--0-|
D|-4-----2--0-|  x4 
G|-4-----2--0-|
B|-2--------2-|
E|----------3-|

Chorus: Guitar 1 or Guitar 2 - Distortion

E|-------------------------------------|
A|-------------------------------------|
D|----------55555555-------------------|
G|-77777777-55555555-55555555-33333333-|  x4
B|-77777777-77777777-55555555-33333333-|
E|-99999999----------77777777-55555555-|





comments
print report bad tab
2 comments total.
0 reply
CrimsonMoon wrote on January 21 2008, 06:42 am

on the intro, you can add an F# on the D string to give it the full triad sound.
like
so:


-----------
-----------
-----------
----4-----7
----5-----7
--7--7----5 etc


it just gives the full
sound to the B/D/F# - the full chord.
sounds better to imitate the song i think

-1 reply
brennan-geetar- wrote on April 10 2008, 07:12 am

hey

really good tab. but the tuning is upside down : ) 5/5

EBGDAE top to bottom not EADGBE

Breno

I want to post or [tab]
guest
You may want to rate the tab now too:
select rating
Please do not post tabs as comments. Select "correction" instead!