Oops, an error
Loading. Please wait.

Set The Fire To The Third Bar Tab

version 3
version 3

Whole song

Interactive

3,069 views 2 this week
no commentswrite comment
1 2 3 4 5
please rate
add to favorites
launch autoscroll
font size
0
reset
how to read this tab
guitar tuner
Tab Pro tools
  • play this tab
  • loop segment
  • change instrument
  • show fretboard
  • metronome
×
Best way to learn
"Set The Fire To The Third Bar"
Autoscroll
slow
fast
+/-
esc
set tempo
stop
Difficulty
novice
-----------------------------------------------------------------------------
			     Set the Fire to the Third Bar - Snow Patrol
-----------------------------------------------------------------------------
Tuning: standard


Chords used: Bm    224432
             A     002220
             G     320033
             D     xx0232
             C2    032033


Intro:

e|----------0---------|
B|---3-----------2----|
G|-----4--------------|
D|--------------------| 
A|-2------------------|
E|----------0----3----|       x2


Verse 1 & 2:

e|----------0---------|
B|---3-----------2----|
G|-----4--------------|
D|--------------------| 
A|-2------------------|
E|----------0----3----|      

I find the map and draw a straight line
Over rivers, farms, and state lines
The distance from 'A' to where you'd be
It's only finger-lengths that I see
I touch the place where I'd find your face
My finger in creases of distant dark places

I hang my coat up in the first bar
There is no peace that I've found so far
The laughter penetrates my silence
As drunken men find flaws in science


Verse 3:
(Palm mute)

Bm                 A  G
Their words mostly noises
Bm               A  G
Ghosts with just voices
Bm               A G
Your words in my memory
Bm             A  G
Are like music to me


Chorus:
Bm			D	
I'm miles from where you are,
A			G
I lay down on the cold ground
Bm			D
I pray that something picks me up
A			Cadd9
And sets me down in your warm arms


Verse 4:

e|----------0---------|
B|---3-----------2----|
G|-----4--------------|
D|--------------------| 
A|-2------------------|
E|----------0----3----| 

After I have traveled so far
We'd set the fire to the third bar
We'd share each other like an island
Until exhausted, close our eyelids


Verse 5:
(palm mute)

Bm                 A   G
And dreaming, pick up from
Bm                A    G
The last place we left off
Bm                A   G
Your soft skin is weeping
Bm              A     G
A joy you can't keep in


Chorus x2

comments
We did not receive enough feedback on this tab! Please rate:
print report bad tab
1 2 3 4 5
I want to post or [tab]
guest
You may want to rate the tab now too:
select rating
Please do not post tabs as comments. Select "correction" instead!