Oops, an error
Loading. Please wait.

Shut Your Eyes Tab

version 1
version 1

Whole song

Interactive

76,812 views 27 this week
6 commentsread comments
1 2 3 4 5
x 29
add to favorites
launch autoscroll
font size
0
reset
how to read this tab
guitar tuner
Autoscroll
slow
fast
+/-
esc
set tempo
stop
Difficulty
intermediate
Shut Your Eyes by Snow Patrol
Tabbed by cmking65@yahoo.com

[Verse]
e|----------------------------------------------------------------------------|
b|----------------------------------------------------------------------------|
g|--8-8-8----8-8-8----6-6-6----5-5-5---------8-8-8----8-8-8----6-6-6----5-5-5-|
d|--8-8-8----6-6-6----4-4-4----6-6-6---------8-8-8----6-6-6----4-4-4----6-6-6-|
a|--6-6-6----8-8-8----6-6-6----6-6-6---------6-6-6----8-8-8----6-6-6----6-6-6-|
e|-----------------------------4-4-4------------------------------------4-4-4-|

[Verse 1]
    Shut     your    eyes and think of somewhere
    Somewhere      cold and caked in snow
    By the fire       we break the quiet
    Learn to          wear each other well

[Verse 2]
    Shut      your   eyes, I spin the big chair
    And you'll feel dizzy, light, and free
    And falling gently on the cushion
    You can come and sing to me

[Chorus]
       e|----------------------------------------------------|
       b|----------------------------------------------------|
       g|--8-8---8-8-8---8-------5-5----5-5-5---5------------|
       d|--9-9---9-9-9---9-------6-6----6-6-6---6------------|
       a|--9-9---9-9-9---9-------6-6----6-6-6---6------------|
       e|--7-7---7-7-7---7-------4-4----4-4-4---4------------|
& when the worrying starts to    hurt

       e|-----------------------------------------------------|
       b|-----------------------------------------------------|
       g|--6-6---6-6-6---6-------------8-8----8-8-8---8-------|
       d|--6-6---6-6-6---6-------------9-9----9-9-9---9-------|
       a|--4-4---4-4-4---4-------------9-9----9-9-9---9-------|
       e|------------------------------7-7----7-7-7---7-------|
& the      world feels like graves of dirt

       e|----------------------------------------------------|
       b|----------------------------------------------------|
       g|--8-8----8-8-8---8-------5-5---5-5-5---5------------|
       d|--9-9----9-9-9---9-------6-6---6-6-6---6------------|
       a|--9-9----9-9-9---9-------6-6---6-6-6---6------------|
       e|--7-7----7-7-7---7-------4-4---4-4-4---4------------|
           just close your eyes until       you can

       e|----------------------------------------------------|
       b|----------------------------------------------------|
       g|--6-6---6-6-6---6-------6-6----6-6-6---6------------|
       d|--6-6---6-6-6---6-------6-6----6-6-6---6------------|
       a|--4-4---4-4-4---4-------4-4----4-4-4---4------------|
       e|----------------------------------------------------|
          imagine this place yeah our secret space at will
Suggest correction
comments
print report bad tab
6 comments total. Showing first comments.
+4 reply
adikt87 42 Jun 11, 2007 08:00 AM

I think this is correct... slightly different

VERSE
e|----------------------------------------------------------------------------|
b|----------------------------------------------------------------------------|
g|--8-8-8----8-8-8----6-6-6------------------8-8-8----8-8-8----6-6-6----5-5-5-|
d|--8-8-8----6-6-6----4-4-4----6-6-6---------8-8-8----6-6-6----4-4-4----6-6-6-|
a|--6-6-6----8-8-8----6-6-6----6-6-6---------6-6-6----8-8-8----6-6-6----6-6-6-|
e|-----------------------------4-4-4------------------------------------4-4-4-|

+5 reply
theWinterfresh 10 Feb 02, 2008 09:57 AM

[07-15-2007 - 08:49 am] by whyharder: "not right"

yes it is. This sounds spot on. adikt's correction is right

0 reply
Serg_fai 10 May 10, 2008 02:23 PM

I think you can even take out the (5,g) on the last part, just like in the 4th part of the correction. it sounds almsot the same.

guest
You may want to rate the tab now too:
select rating
Wanna post a correction for this tab? Suggest correction