Oops, an error
Loading. Please wait.

Signal Fire bass

version 1
version 1

Whole song

Interactive

2,720 views 3 this week
no commentswrite comment
1 2 3 4 5
x 3
add to favorites
×
Save as Personal and add changes to this tab that will be seen only by you. Learn more ›
×
You can save this tab as Personal to edit and correct it or add notes. All changes will be seen only by you. Learn more »
launch autoscroll
font size
0
reset
guitar tuner
edit
Autoscroll
slow
fast
+/-
esc
set tempo
stop
Difficulty
Not one up so thought i'd sort that out...

Listen to the song for proper timing (i can only indicate so much!!!!)

Nice and Easy!!!

Verse

The    perfect    words    never    crossed    my     mind
E -----5---55-----2---------22-------0---------00-----10------1010-|
A------------------------------------------------------------------|
D------------------------------------------------------------------|
G------------------------------------------------------------------|

cos there was nothing in there but you
E ------------5---55----2------22-------0-----0------0-----0--0---|
A-----------------------------------------------------------------|
D-----------------------------------------------------------------|
G-----------------------------------------------------------------|

x 4

Chorus

    There   you     are,    standing  right   in   front  of   me
E--5-------5---------5----0--------------0---0-----2------2--2---10---10--10-|
A----------------------------------------------------------------------------|
D----------------------------------------------------------------------------|
G----------------------------------------------------------------------------|

x 4

Refrain

     No    i    wont    wait    forever
E--5------2--------------0----------10--|
A---------------------------------------|
D---------------------------------------|
G---------------------------------------|

x2

ORDER

Verse
Chorus
Refrain
Verse
Chorus (x2)
Refrain (x2)


That's it!!! nice and easy ... tell me what you think!!!

            
            
Suggest correction
Creating personal tab
Creating personal tab
You can edit any tab online and save it as your Personal.

You can edit, replace or remove any tab part or add personal notes – all changes will be seen only by you.

Personal tabs can be accessed anytime from any device, even offline.
Learn more »
Give kudos to tab author, rate the tab!
1 2 3 4 5
comments
print report bad tab
guest
Wanna post a correction for this tab? Suggest correction