Oops, an error
Loading. Please wait.

Signal Fire Tab

version 1
version 1

Whole song

Interactive

13,958 views 1 this week
no commentswrite comment
1 2 3 4 5
1 last vote to show rating
add to favorites
launch autoscroll
font size
0
reset
how to read this tab
guitar tuner
Autoscroll
slow
fast
+/-
esc
set tempo
stop
Help us to improve Ultimate-Guitar.com Take our survey!
×
Author
Difficulty
novice
Artist: Snow Patrol
Song: Signal Fire
Album: Spider-Man 3 Soundtrack

Tabbed by: Revlin
5-1-07


Brillant song, probably the best thing they've done since Final Straw.
Enjoy.



Intro/Verse
e|------------------------------------------|
B|--10-10-10-10--7-7-7-7--5-5-5-5--3-3-3-3--|
G|--x--x--x--x---x-x-x-x--x-x-x-x--x-x-x-x--|
D|--7--7--7--7---4-4-4-4--2-2-2-2--0-0-0-0--|
A|------------------------------------------|
E|------------------------------------------|


Chorus
e|---------------------------------------|
B|---------------------------------------|
G|-----------------------------7-77-777--|
D|--7--7-77--2--2-22--4--4-44--7-77-777--|
A|--7--7-77--2--2-22--4--4-44--5-55-555--|
E|--5--5-55--0--0-00--2--2-22------------|



Comments, questions, e-mail me at SoftAsylum@gmail.com
Suggest correction
Give kudos to tab author, rate the tab!
1 2 3 4 5
comments
print report bad tab
guest
You may want to rate the tab now too:
select rating
Wanna post a correction for this tab? Suggest correction