Oops, an error
Loading. Please wait.

Signal Fire Tab

version 2
version 2

Whole song

Interactive

3,157 views 1 this week
2 commentsread comments
1 2 3 4 5
please rate
add to favorites
launch autoscroll
font size
0
reset
how to read this tab
guitar tuner
Autoscroll
slow
fast
+/-
esc
set tempo
stop
Help us to improve Ultimate-Guitar.com Take our survey!
×
Difficulty
novice
this is my first attempt at a tab, and its probably not right but it sounds good, and im 
chuffed cause i worked it out myself...

e|-------------------------------------------------------------------------|
B|-------------------------------------------------------------------------|
G|-------------------------------------------------------------------------|
D|14-14-14-14-14-14-14-14-14-14-14-14-14-14-14-14--------------------------|
A|12-12-12-12-12-12-12-12-12-12-12-12-12-12-12-12--------------------------|
E| x- x- x- x-14-14-14-14-12-12-12-12- 8- 8- 8- 8--------------------------|

play this until the chorus, which im even less sure about, but its pretty close

e|-------------------------------------------------------------------------|
B|-------------------------------------------------------------------------|
G|-------------------------------------------------------------------------|
D| 5- 5- 5-12-12-12-14-14-14-12-12-12--------------------------------------|
A| 5- 5- 5-12-12-12-14-14-14-10-10-10--------------------------------------|
E| 3- 3- 3-10-10-10-12-12-12-10-10-10--------------------------------------|
Suggest correction
Give kudos to tab author, rate the tab!
1 2 3 4 5
comments
print report bad tab
2 comments total.
0 reply
athens908 10 wrote on May 18 2007, 05:46 pm

wat does the x mean? i never seen it before

0 reply
Paul Lambeth 660 wrote on June 3 2007, 07:34 pm

x means mute the string.
Haven't got my guitar or a copy of the song handy. I'll rate later :)

guest
You may want to rate the tab now too:
select rating
Wanna post a correction for this tab? Suggest correction