Oops, an error
Loading. Please wait.

Signal Fire Tab

version 3
version 3

Whole song

Interactive

7,922 views 1 this week
4 commentsread comments
1 2 3 4 5
accurate
x 7
add to favorites
launch autoscroll
font size
0
reset
how to read this tab
guitar tuner
Tab Pro tools
  • play this tab
  • loop segment
  • change instrument
  • show fretboard
  • metronome
×
Best way to learn
"Signal Fire"
Autoscroll
slow
fast
+/-
esc
set tempo
stop
Contributor
Hey all, this is my first EVER tab

It sounds just right to me, so hopefully sounds right when you play it.. The strumming 
slow and simple but its a bit of a stretch in some parts - if your like me, and have very 
super dooper flexible fingers =P

  ------------- Normal tuning --------------

Intro/verse:

Guitar 1
e|--------------------------------------------|
B|--------------------------------------------|
G|--14--14--14--14--16--16--14--14------------| (x9)
D|14--14--------------------------------------|
A|12--12--12--12--14--14--12--12--------------|
E|--------14--14--12--12--10--10--------------|

- Then guitar 2 comes in after 5 times of the intro riff with:

e|--------------------------------------------|
B|--------------------------------------------|
G|---14--14---14--14--16--16--14--14----------| (x4)
D|----------14--14--14--14--12--12------------|
A|-12--12-------------------------------------|
E|--------------------------------------------|


Chorus:

quite fast up and down strokes
Guitar 1
e|------------------------------------------------------------------------|
B|------------------------------------------------------------------------|
G|------------------------------------------------------------------------|
D|-7-7-7-7-7-7-7-7-7-7-7-7---14-14-14-14-14-14---12-12-12-12-12-12--------|
A|-x-x-x-x-x-x-x-x-x-x-x-x---x--x--x--x--x--x----x--x--x--x--x--x---------|
E|-5-5-5-5-5-5-5-5-5-5-5-5---12-12-12-12-12-12---10-10-10-10-10-10--------|
        (12 in total)          (6 in total)         (6 in total)

e|------------------------------------------------------------------------|
B|------------------------------------------------------------------------|
G|------------------------------------------------------------------------|
D|-14-14-14------16-16-16-----14-14-14-14-14-14---18-18-18-18-18-18-18-18-|
A|-x--x--x-------x--x--x------x--x--x--x--x--x----x--x--x--x--x--x--x--x--|
E|-12-12-12------14-14-14-----12-12-12-12-12-12---16-16-16-16-16-16-16-16-|
 (3 in total)  (3 in total)      (6 in total)          (8 in total)

e|------------------------------------------------------------------------|
B|------------------------------------------------------------------------|
G|------------------------------------------------------------------------|
D|-19-19-19-19-19-19-19-19------------------------------------------------|
A|-x--x--x--x--x--x--x--x-------------------------------------------------|
E|-17-17-17-17-17-17-17-17------------------------------------------------|
        (8 in total)

• Repeat this riff 4 times during chorus..

• Now repeat intro/verse again, after the fill with only the piano

intro/verse
Guitar 1
e|--------------------------------------------|
B|--------------------------------------------|
G|--14--14--14--14--16--16--14--14------------| (x5)
D|14--14--------------------------------------|
A|12--12--12--12--14--14--10--10--------------|
E|--------14--14--12--12--8---8---------------|

Repeat Chorus

Chorus:

quite fast up and down strokes
Guitar 1
e|------------------------------------------------------------------------|
B|------------------------------------------------------------------------|
G|------------------------------------------------------------------------|
D|-7-7-7-7-7-7-7-7-7-7-7-7---14-14-14-14-14-14---12-12-12-12-12-12--------|
A|-x-x-x-x-x-x-x-x-x-x-x-x---x--x--x--x--x--x----x--x--x--x--x--x---------|
E|-5-5-5-5-5-5-5-5-5-5-5-5---12-12-12-12-12-12---10-10-10-10-10-10--------|
        (12 in total)          (6 in total)         (6 in total)

e|------------------------------------------------------------------------|
B|------------------------------------------------------------------------|
G|------------------------------------------------------------------------|
D|-14-14-14------16-16-16-----14-14-14-14-14-14---18-18-18-18-18-18-18-18-|
A|-x--x--x-------x--x--x------x--x--x--x--x--x----x--x--x--x--x--x--x--x--|
E|-12-12-12------14-14-14-----12-12-12-12-12-12---16-16-16-16-16-16-16-16-|
 (3 in total)  (3 in total)      (6 in total)          (8 in total)

e|------------------------------------------------------------------------|
B|------------------------------------------------------------------------|
G|------------------------------------------------------------------------|
D|-19-19-19-19-19-19-19-19------------------------------------------------|
A|-x--x--x--x--x--x--x--x-------------------------------------------------|
E|-17-17-17-17-17-17-17-17------------------------------------------------|
        (8 in total)


• Solo fill (havent worked it out yet, but is very similar to the chorus)


• After the solo is the chorous again

Chorus:

quite fast up and down strokes
Guitar 1
e|------------------------------------------------------------------------|
B|------------------------------------------------------------------------|
G|------------------------------------------------------------------------|
D|-7-7-7-7-7-7-7-7-7-7-7-7---14-14-14-14-14-14---12-12-12-12-12-12--------|
A|-x-x-x-x-x-x-x-x-x-x-x-x---x--x--x--x--x--x----x--x--x--x--x--x---------|
E|-5-5-5-5-5-5-5-5-5-5-5-5---12-12-12-12-12-12---10-10-10-10-10-10--------|
        (12 in total)          (6 in total)         (6 in total)

e|------------------------------------------------------------------------|
B|------------------------------------------------------------------------|
G|------------------------------------------------------------------------|
D|-14-14-14------16-16-16-----14-14-14-14-14-14---18-18-18-18-18-18-18-18-|
A|-x--x--x-------x--x--x------x--x--x--x--x--x----x--x--x--x--x--x--x--x--|
E|-12-12-12------14-14-14-----12-12-12-12-12-12---16-16-16-16-16-16-16-16-|
 (3 in total)  (3 in total)      (6 in total)          (8 in total)

e|------------------------------------------------------------------------|
B|------------------------------------------------------------------------|
G|------------------------------------------------------------------------|
D|-19-19-19-19-19-19-19-19------------------------------------------------|
A|-x--x--x--x--x--x--x--x-------------------------------------------------|
E|-17-17-17-17-17-17-17-17------------------------------------------------|
        (8 in total)


- Ends with the piano doing the outro

Thanks

Any problems/corrects or just comments please email me at Martin_0434@hotmail.com =)
comments
print report bad tab
4 comments total. Showing first comments.
0 reply
dcfc_rules wrote on June 1 2007, 05:42 am

hey man, sweet tab but i think u got the last chord wrong in the intro
.. it should be:

e|--------------------------------------------|
B|--------------------------------------------|
G|--14--14--14--14--16--16--14--14------------| (x9)
D|14--14--------------------------------------|
A|12--12--12--12--14--14--12--12--------------|
E|--------14--14--12--12--10--10--------------|

0 reply
BingoDK wrote on May 28 2008, 05:39 pm

this is like nearly impossible to play if you have small fingers :/

0 reply
dark_syclone wrote on October 15 2008, 11:25 am

LOL yeah it is 12 12 at the end chord. 8 8 is stupidly impossible, sorry xD 10 10 10 10

I want to post or [tab]
guest
You may want to rate the tab now too:
select rating
Please do not post tabs as comments. Select "correction" instead!