Oops, an error
Loading. Please wait.

Spitting Games Tab

version 3
version 3

Whole song

Interactive

1,741 views 1 this week
no commentswrite comment
1 2 3 4 5
accurate
x 2
add to favorites
launch autoscroll
font size
0
reset
how to read this tab
guitar tuner
Tab Pro tools
  • play this tab
  • loop segment
  • change instrument
  • show fretboard
  • metronome
Autoscroll
slow
fast
+/-
esc
set tempo
stop
Contributor
Song: Spitting Games
Band: Snow Patrol
Album: Final Straw


Main Riff


Guitar 1

e|------------------------------------------------------------|
B|-5/7~----------5/7~-----------------------------------------|
G|--------4-2-----------4-2-7---------------------------------|  x2 
D|------------------------------------------------------------|
A|------------------------------------------------------------|
E|------------------------------------------------------------|
   
Guitar 2

e|------------------------------------------------------------| 
B|------------------------------------------------------------| 
G|-7-7-7-7-9-9-9-9-11-11-11-11-12-12-12-12--------------------|  x2
D|-7-7-7-7-9-9-9-9-11-11-11-11-12-12-12-12--------------------|
A|-5-5-5-5-7-7-7-7--9--9--9--9-10-10-10-10--------------------|
E|------------------------------------------------------------|

Bass

G|-------------------------------------------------------------------|
D|-------------------------------------------------------------------| x2
A|-555555555555-7777777777777777-9999999999999999-101010101010101010-|
E|-------------------------------------------------------------------|
 



Verse 1


Guitar 1&2      "I broke into your house last night"
e|------------------------------------------------------------| 
B|------------------------------------------------------------| 
G|-7-7-7-7-5-5-5-5-4-4-4-4------------------------------------|  x2
D|-7-7-7-7-5-5-5-5-4-4-4-4-5-5-5-5----------------------------|
A|-5-5-5-5-3-3-3-3-2-2-2-2-5-5-5-5----------------------------|
E|-------------------------3-3-3-3----------------------------|


Bass
G|-----------------------------------------------------------------|
D|-----------------------------------------------------------------|
A|-555555555555-33333333333333-2222222222222-----------------------| x2
E|------------------------------------------333333333333333--------|




Main Riff


Guitar 1

e|------------------------------------------------------------|
B|-5/7~----------5/7~-----------------------------------------|
G|--------4-2-----------4-2-7---------------------------------|  x2 
D|------------------------------------------------------------|
A|------------------------------------------------------------|
E|------------------------------------------------------------|
   
Guitar 2

e|------------------------------------------------------------| 
B|------------------------------------------------------------| 
G|-7-7-7-7-9-9-9-9-11-11-11-11-12-12-12-12--------------------|  x2
D|-7-7-7-7-9-9-9-9-11-11-11-11-12-12-12-12--------------------|
A|-5-5-5-5-7-7-7-7--9--9--9--9-10-10-10-10--------------------|
E|------------------------------------------------------------|

Bass

G|-------------------------------------------------------------------|
D|-------------------------------------------------------------------| x2
A|-555555555555-7777777777777777-9999999999999999-101010101010101010-|
E|-------------------------------------------------------------------|


Verse 2


Guitar 1&2      "I find it easier to sit and stare"
e|------------------------------------------------------------| 
B|------------------------------------------------------------| 
G|-7-7-7-7-5-5-5-5-4-4-4-4------------------------------------|  x2
D|-7-7-7-7-5-5-5-5-4-4-4-4-5-5-5-5----------------------------|
A|-5-5-5-5-3-3-3-3-2-2-2-2-5-5-5-5----------------------------|
E|-------------------------3-3-3-3----------------------------|


Bass
G|-----------------------------------------------------------------|
D|-----------------------------------------------------------------|
A|-555555555555-33333333333333-2222222222222-----------------------| x2
E|------------------------------------------333333333333333--------|


Chorus


 Guitar 1&2     "I struggle for the words and then give up"
e|--------------------------------------------------------------------| 
B|--------------------------------------------------------------------| 
G|--------------------------------------------------------------------|  x2
D|-3--3--3--3--5--5--5--5--7-7-7-7-7-7-7-7-7---------------------------|
A|-3--3--3--3--5--5--5--5--0-0-0-0-0-0-0-0-0---------------------------|
E|-1--1--1--1--3--3--3--3--5-5-5-5-5-5-5-5-5---------------------------|



 Bass
G|------------------------------------------------------------------|
D|------------------------------------------------------------------|
A|-88888888888888888-10101010101010101010-555555555555555-----------| x2
E|------------------------------------------------------------------|



Main Riff


Guitar 1

e|------------------------------------------------------------|
B|-5/7~----------5/7~-----------------------------------------|
G|--------4-2-----------4-2-7---------------------------------|  x2 
D|------------------------------------------------------------|
A|------------------------------------------------------------|
E|------------------------------------------------------------|
   
Guitar 2

e|------------------------------------------------------------| 
B|------------------------------------------------------------| 
G|-7-7-7-7-9-9-9-9-11-11-11-11-12-12-12-12--------------------|  x2
D|-7-7-7-7-9-9-9-9-11-11-11-11-12-12-12-12--------------------|
A|-5-5-5-5-7-7-7-7--9--9--9--9-10-10-10-10--------------------|
E|------------------------------------------------------------|

Bass

G|-------------------------------------------------------------------|
D|-------------------------------------------------------------------| x2
A|-555555555555-7777777777777777-9999999999999999-101010101010101010-|
E|-------------------------------------------------------------------|


Verse 3


Guitar 1        "But after that the flood gates open up"
e|------------------------------------------------------------| 
B|------------------------------------------------------------| 
G|-7-7-7-7-5-5-5-5-4-4-4-4------------------------------------|  x4
D|-7-7-7-7-5-5-5-5-4-4-4-4-5-5-5-5----------------------------|
A|-5-5-5-5-3-3-3-3-2-2-2-2-5-5-5-5----------------------------|
E|-------------------------3-3-3-3----------------------------|

Guitar 2
e|------------------------------------------------------------|
B|------------------------------------------------------------|
G|------------------------------------------------------------|
D|------------------------------------------------------------|
A|------------------------------------------------------------|
E|------------------------------------------------------------|

e|--------------------------------------------------------------|
B|--------------------------------------------------------------|
G|-----------------------------------------------------------7b-|
D|-----------------------------------------------------------7b-|
A|-----------------------------------------------------------5b-|
E|--------------------------------------------------------------|

e|------------------------------------------------------------| 
B|------------------------------------------------------------| 
G|-7-7-7-7-5-5-5-5-4-4-4-4------------------------------------| 
D|-7-7-7-7-5-5-5-5-4-4-4-4-5-5-5-5----------------------------| x2
A|-5-5-5-5-3-3-3-3-2-2-2-2-5-5-5-5----------------------------|
E|-------------------------3-3-3-3----------------------------|



Bass
G|-----------------------------------------------------------------|
D|-----------------------------------------------------------------|
A|-555555555555-33333333333333-2222222222222-----------------------| x2
E|------------------------------------------333333333333333--------|


Chorus


 Guitar 1&2     "I struggle for the words and then give up"
e|--------------------------------------------------------------------| 
B|--------------------------------------------------------------------| 
G|--------------------------------------------------------------------|  x2
D|-3--3--3--3--5--5--5--5--7-7-7-7-7-7-7-7-7---------------------------|
A|-3--3--3--3--5--5--5--5--0-0-0-0-0-0-0-0-0---------------------------|
E|-1--1--1--1--3--3--3--3--5-5-5-5-5-5-5-5-5---------------------------|



 Bass
G|------------------------------------------------------------------|
D|------------------------------------------------------------------|
A|-88888888888888888-10101010101010101010-555555555555555-----------| x2
E|------------------------------------------------------------------|



Main Riff


Guitar 1

e|------------------------------------------------------------|
B|-5/7~----------5/7~-----------------------------------------|
G|--------4-2-----------4-2-7---------------------------------|  x3
D|------------------------------------------------------------|
A|------------------------------------------------------------|
E|------------------------------------------------------------|
   
Guitar 2

e|------------------------------------------------------------| 
B|------------------------------------------------------------| 
G|-7-7-7-7-9-9-9-9-11-11-11-11-12-12-12-12--------------------|  x3
D|-7-7-7-7-9-9-9-9-11-11-11-11-12-12-12-12--------------------|
A|-5-5-5-5-7-7-7-7--9--9--9--9-10-10-10-10--------------------|
E|------------------------------------------------------------|

Bass

G|-------------------------------------------------------------------|
D|-------------------------------------------------------------------| x3
A|-555555555555-7777777777777777-9999999999999999-101010101010101010-|
E|-------------------------------------------------------------------|


Outro

Guitar 1

   "I struggle with the words"
e|----------------------------------------------------|
B|----------------------------------------------------|
G|----------------------------------------------------| x4
D|----------------------------------------------------|
A|----------------------------------------------------|
E|-3--3--3--3--5--5--5--5--7-7-7-7-7-7-7-7------------|




My first Tab
Enjoy!
comments
We did not receive enough feedback on this tab! Please rate:
print report bad tab
1 2 3 4 5
I want to post or [tab]
guest
You may want to rate the tab now too:
select rating
Please do not post tabs as comments. Select "correction" instead!