Oops, an error
Loading. Please wait.

Starfighter Pilot Tab

version 2
version 2

Whole song

249 views 1 this week
no commentswrite comment
1 2 3 4 5
please rate
add to favorites
launch autoscroll
font size
0
reset
how to read this tab
guitar tuner
Autoscroll
slow
fast
+/-
esc
set tempo
stop
Help us to improve Ultimate-Guitar.com Take our survey!
×
Author
star fighter pilot from the album songs for polarbears

intro

e|------------------------------------|   e|--4---4---4------|the lasery bit.
b|------------------------------------|   b|-----------------|can be playd on 
g|-5-5-5-5-5-5-5-5-5-5-5-5-5-5-5-5-5--|   g|--------------5--|same guitar or
d|-6-6-6-6-6-6-6-6-6-6-6-6-6-6-6-6-6--|   d|-----------------|on another.   
a|-6-6-6-6-6-6-6-6-6-6-6-6-6-6-6-6-6--|   a|-----------------|
E|-4-4-4-4-4-4-4-4-4-4-4-4-4-4-4-4-4--|x3 E|-----------------| 

verse

e|--------------------------------------------------|
b|--------------------------------------------------|
g|-5-5-5-5-5-5-5-5-5-5-5-5-5-5-5-5-8-8-8-7-7-7-6-6--|
d|-6-6-6-6-6-6-6-6-6-6-6-6-6-6-6-6-9-9-9-8-8-8-7-7--|
a|-6-6-6-6-6-6-6-6-6-6-6-6-6-6-6-6-9-9-9-8-8-8-7-7--|for extra syle you could
E|-4-4-4-4-4-4-4-4-4-4-4-4-4-4-4-4-7-7-7-6-6-6-5-5--|play 2 7+6 and hold the
       andrews a starfighter pilot                   second note on them.)

e|--------------------------------------------------|
b|--------------------------------------------------|
g|-5-5-5-5-5-5-5-5-5-5-5-5-5-5-5-5-8-8-8-7-7-7-6-6--|
d|-6-6-6-6-6-6-6-6-6-6-6-6-6-6-6-6-9-9-9-8-8-8-7-7--|
a|-6-6-6-6-6-6-6-6-6-6-6-6-6-6-6-6-9-9-9-8-8-8-7-7--|
E|-4-4-4-4-4-4-4-4-4-4-4-4-4-4-4-4-7-7-7-6-6-6-5-5--|
       he can get high in his jet

e|--------------------------------------------------|
b|--------------------------------------------------|
g|-5-5-5-5-5-5-5-5-5-5-5-5-5-5-5-5-8-8-8-7-7-7-6-6--|
d|-6-6-6-6-6-6-6-6-6-6-6-6-6-6-6-6-9-9-9-8-8-8-7-7--|
a|-6-6-6-6-6-6-6-6-6-6-6-6-6-6-6-6-9-9-9-8-8-8-7-7--|
E|-4-4-4-4-4-4-4-4-4-4-4-4-4-4-4-4-7-7-7-6-6-6-5-5--|
      tells me about all his women

e|--------------------------------------------------|
b|--------------------------------------------------|
g|-5-5-5-5-5-5-5-5-5-5-5-5-5-5-5-5-8-8-8-7-7-7-6-6--|
d|-6-6-6-6-6-6-6-6-6-6-6-6-6-6-6-6-9-9-9-8-8-8-7-7--|
a|-6-6-6-6-6-6-6-6-6-6-6-6-6-6-6-6-9-9-9-8-8-8-7-7--|
E|-4-4-4-4-4-4-4-4-4-4-4-4-4-4-4-4-7-7-7-6-6-6-5-5--|
           he can get any ill bet

chorus

e|------------------------|
b|------------------------|
g|-2-2-24-4-46-6-6-6-66-6-|
d|-3-3-35-5-57-7-7-7-77-7-|
a|-3-3-35-5-57-7-7-7-77-7-|
E|-1-1-13-3-35-5-5-5-55-5-|
  you know i think of you

e|------------------------|
b|------------------------|
g|-2-2-24-4-46-6-6-6-66-6-|
d|-3-3-35-5-57-7-7-7-77-7-|
a|-3-3-35-5-57-7-7-7-77-7-|
E|-1-1-13-3-35-5-5-5-55-5-|
  your picture on the wall

e|------------------------|
b|------------------------|
g|-2-2-24-4-46-6-6-6-66-6-|
d|-3-3-35-5-57-7-7-7-77-7-|
a|-3-3-35-5-57-7-7-7-77-7-|
E|-1-1-13-3-35-5-5-5-55-5-|
i would raise my drink to you

e|------------------------|
b|------------------------|
g|-2-2-24-4-46-6-6-6-66-6-|
d|-3-3-35-5-57-7-7-7-77-7-|
a|-3-3-35-5-57-7-7-7-77-7-|
E|-1-1-13-3-35-5-5-5-55-5-|
ill stay sober just for you

e|---------------------------------------------------------------|
b|---------------------------------------------------------------|
g|-4-4-4-4-44-4--42-2-2-2-22-2--21-1-1-1-11-1-1-1-11-1-1-1-11-1--|
d|-5-5-5-5-55-5--53-3-3-3-33-3--32-2-2-2-22-2-2-2-22-2-2-2-22-2--|
a|-5-5-5-5-55-5--53-3-3-3-33-3--32-2-2-2-22-2-2-2-22-2-2-2-22-2--|
E|-3-3-3-3-33-3--31-1-1-1-11-1--10-0-0-0-00-0-0-0-00-0-0-0-00-0--|
   just for you   just for you


e|-----------------------------------| 
b|-----------------------------------|   
g|-5-5-5-5-5-5-5-5-5-5-5-5-5-5-5-5---|   
d|-6-6-6-6-6-6-6-6-6-6-6-6-6-6-6-6---|     
a|-6-6-6-6-6-6-6-6-6-6-6-6-6-6-6-6---|   
E|-4-4-4-4-4-4-4-4-4-4-4-4-4-4-4-4---|x2 

verse

e|--------------------------------------------------|
b|--------------------------------------------------|
g|-5-5-5-5-5-5-5-5-5-5-5-5-5-5-5-5-8-8-8-7-7-7-6-6--|
d|-6-6-6-6-6-6-6-6-6-6-6-6-6-6-6-6-9-9-9-8-8-8-7-7--|
a|-6-6-6-6-6-6-6-6-6-6-6-6-6-6-6-6-9-9-9-8-8-8-7-7--|
E|-4-4-4-4-4-4-4-4-4-4-4-4-4-4-4-4-7-7-7-6-6-6-5-5--|
       andrews a starfighter pilot


e|--------------------------------------------------|
b|--------------------------------------------------|
g|-5-5-5-5-5-5-5-5-5-5-5-5-5-5-5-5-8-8-8-7-7-7-6-6--|
d|-6-6-6-6-6-6-6-6-6-6-6-6-6-6-6-6-9-9-9-8-8-8-7-7--|
a|-6-6-6-6-6-6-6-6-6-6-6-6-6-6-6-6-9-9-9-8-8-8-7-7--|
E|-4-4-4-4-4-4-4-4-4-4-4-4-4-4-4-4-7-7-7-6-6-6-5-5--|
he knows all the girls in the world


e|--------------------------------------------------|
b|--------------------------------------------------|
g|-5-5-5-5-5-5-5-5-5-5-5-5-5-5-5-5-8-8-8-7-7-7-6-6--|
d|-6-6-6-6-6-6-6-6-6-6-6-6-6-6-6-6-9-9-9-8-8-8-7-7--|
a|-6-6-6-6-6-6-6-6-6-6-6-6-6-6-6-6-9-9-9-8-8-8-7-7--|
E|-4-4-4-4-4-4-4-4-4-4-4-4-4-4-4-4-7-7-7-6-6-6-5-5--|
hes better than james kirk ir tweeky


e|--------------------------------------------------|
b|--------------------------------------------------|
g|-5-5-5-5-5-5-5-5-5-5-5-5-5-5-5-5-8-8-8-7-7-7-6-6--|
d|-6-6-6-6-6-6-6-6-6-6-6-6-6-6-6-6-9-9-9-8-8-8-7-7--|
a|-6-6-6-6-6-6-6-6-6-6-6-6-6-6-6-6-9-9-9-8-8-8-7-7--|
E|-4-4-4-4-4-4-4-4-4-4-4-4-4-4-4-4-7-7-7-6-6-6-5-5--|
    i cradle his picture at night

e|--------------------------------------------------|
b|--------------------------------------------------|
g|-5-5-5-5-5-5-5-5-5-5-5-5-5-5-5-5-8-8-8-7-7-7-6-6--|
d|-6-6-6-6-6-6-6-6-6-6-6-6-6-6-6-6-9-9-9-8-8-8-7-7--|
a|-6-6-6-6-6-6-6-6-6-6-6-6-6-6-6-6-9-9-9-8-8-8-7-7--|
E|-4-4-4-4-4-4-4-4-4-4-4-4-4-4-4-4-7-7-7-6-6-6-5-5--|
      andrews a starfighter pilot

e|--------------------------------------------------|
b|--------------------------------------------------|
g|-5-5-5-5-5-5-5-5-5-5-5-5-5-5-5-5-8-8-8-7-7-7-6-6--|
d|-6-6-6-6-6-6-6-6-6-6-6-6-6-6-6-6-9-9-9-8-8-8-7-7--|
a|-6-6-6-6-6-6-6-6-6-6-6-6-6-6-6-6-9-9-9-8-8-8-7-7--|
E|-4-4-4-4-4-4-4-4-4-4-4-4-4-4-4-4-7-7-7-6-6-6-5-5--|
        i watch him on tv each day

e|--------------------------------------------------|
b|--------------------------------------------------|
g|-5-5-5-5-5-5-5-5-5-5-5-5-5-5-5-5-8-8-8-7-7-7-6-6--|
d|-6-6-6-6-6-6-6-6-6-6-6-6-6-6-6-6-9-9-9-8-8-8-7-7--|
a|-6-6-6-6-6-6-6-6-6-6-6-6-6-6-6-6-9-9-9-8-8-8-7-7--|
E|-4-4-4-4-4-4-4-4-4-4-4-4-4-4-4-4-7-7-7-6-6-6-5-5--|
ive got all the toys of his programme

e|--------------------------------------------------|
b|--------------------------------------------------|
g|-5-5-5-5-5-5-5-5-5-5-5-5-5-5-5-5-8-8-8-7-7-7-6-6--|
d|-6-6-6-6-6-6-6-6-6-6-6-6-6-6-6-6-9-9-9-8-8-8-7-7--|
a|-6-6-6-6-6-6-6-6-6-6-6-6-6-6-6-6-9-9-9-8-8-8-7-7--|
E|-4-4-4-4-4-4-4-4-4-4-4-4-4-4-4-4-7-7-7-6-6-6-5-5--|
 and all of his past shows on tape

chorus

e|------------------------|
b|------------------------|
g|-2-2-24-4-46-6-6-6-66-6-|
d|-3-3-35-5-57-7-7-7-77-7-|
a|-3-3-35-5-57-7-7-7-77-7-|
E|-1-1-13-3-35-5-5-5-55-5-|
  you know i think of you

e|------------------------|
b|------------------------|
g|-2-2-24-4-46-6-6-6-66-6-|
d|-3-3-35-5-57-7-7-7-77-7-|
a|-3-3-35-5-57-7-7-7-77-7-|
E|-1-1-13-3-35-5-5-5-55-5-|
  your picture on the wall

e|------------------------|
b|------------------------|
g|-2-2-24-4-46-6-6-6-66-6-|
d|-3-3-35-5-57-7-7-7-77-7-|
a|-3-3-35-5-57-7-7-7-77-7-|
E|-1-1-13-3-35-5-5-5-55-5-|
i would raise my drink to you

e|------------------------|
b|------------------------|
g|-2-2-24-4-46-6-6-6-66-6-|
d|-3-3-35-5-57-7-7-7-77-7-|
a|-3-3-35-5-57-7-7-7-77-7-|
E|-1-1-13-3-35-5-5-5-55-5-|
ill stay sober just for you

e|---------------------------------------------------------------|
b|---------------------------------------------------------------|
g|-4-4-4-4-44-4--42-2-2-2-22-2--21-1-1-1-11-1-1-1-11-1-1-1-11-1--|
d|-5-5-5-5-55-5--53-3-3-3-33-3--32-2-2-2-22-2-2-2-22-2-2-2-22-2--|
a|-5-5-5-5-55-5--53-3-3-3-33-3--32-2-2-2-22-2-2-2-22-2-2-2-22-2--|
E|-3-3-3-3-33-3--31-1-1-1-11-1--10-0-0-0-00-0-0-0-00-0-0-0-00-0--|
   just for you   just for you

outro
(with lasery bit)
e|-------------------------------------------------------------------|
b|-------------------------------------------------------------------|    
g|-5-5-5-5-5-5-5-5-5-5-5-5-5-5-5-5-5-1-1-1-1-1-1-1-1-1-1-1-1-1-1-1-1-|   
d|-6-6-6-6-6-6-6-6-6-6-6-6-6-6-6-6-6-2-2-2-2-2-2-2-2-2-2-2-2-2-2-2-2-|   
a|-6-6-6-6-6-6-6-6-6-6-6-6-6-6-6-6-6-2-2-2-2-2-2-2-2-2-2-2-2-2-2-2-2-|  
E|-4-4-4-4-4-4-4-4-4-4-4-4-4-4-4-4-4-0-0-0-0-0-0-0-0-0-0-0-0-0-0-0-0-|   
        la la la la la la

repeat until it fades out

please rate and feel free to leave a comment
thanks
Suggest correction
What's this?
You can suggest a correction to this tab. Community and Mods will review your correction and vote to approve or reject it.
comments
We did not receive enough feedback on this tab! Please rate:
print report bad tab
1 2 3 4 5
guest
You may want to rate the tab now too:
select rating
Please do not post tabs as comments. Select "correction" instead!