Oops, an error
Loading. Please wait.

Take Back The City Tab

version 2
version 2

Whole song

14,955 views 12 this week
no commentswrite comment
1 2 3 4 5
x 5
add to favorites
launch autoscroll
font size
0
reset
how to read this tab
guitar tuner
Autoscroll
slow
fast
+/-
esc
set tempo
stop
Help us to improve Ultimate-Guitar.com Take our survey!
×
Author
Capo
1st fret
I'm 80% sure this is right but it is my first tab so...
Anyway all this tab is all in standard tuning.

Guitar 1: Clean. Capo 1st fret (tab in relation to capo)

Guitar 2: Medium Distortion. No capo.

Intro:

Guitar 1
e--0-0-0-0--0-0-0-0--0-0-0-0-|     e--0-0-0-0--0-0-0-0--0-0-0-0-|
B--3-3-3-3--3-3-3-3--0-0-0-0-|     B--3-3-3-3--3-3-3-3--3-3-3-3-|
G--0-0-0-0--0-0-0-0--2-2-2-2-|     G--0-0-0-0--0-0-0-0--0-0-0-0-|
D--2-2-2-2--4-4-4-4--2-2-2-2-|     D--2-2-2-2--2-2-2-2--2-2-2-2-|
A--0-0-0-0--0-0-0-0--0-0-0-0-|     A--0-0-0-0--0-0-0-0--0-0-0-0-|
E----------------------------|(x3) E----------------------------|

{Play Twice}

Verse 1:

Guitar 1
e--0-0-0-0--0-0-0-0--0-0-0-0-|
B--3-3-3-3--3-3-3-3--0-0-0-0-|
G--0-0-0-0--0-0-0-0--2-2-2-2-|
D--2-2-2-2--4-4-4-4--2-2-2-2-|
A--0-0-0-0--0-0-0-0--0-0-0-0-|
E----------------------------|

Take back the city for yourself tonight

Guitar 1
e--0-0-0-0--0-0-0-0--0-0-0-0-|
B--3-3-3-3--3-3-3-3--0-0-0-0-|
G--0-0-0-0--0-0-0-0--2-2-2-2-|
D--2-2-2-2--4-4-4-4--2-2-2-2-|
A--0-0-0-0--0-0-0-0--0-0-0-0-|
E----------------------------|

And I'll take the city for me

Guitar 1
e--0-0-0-0--0-0-0-0--0-0-0-0-|
B--3-3-3-3--3-3-3-3--0-0-0-0-|
G--0-0-0-0--0-0-0-0--2-2-2-2-|
D--2-2-2-2--4-4-4-4--2-2-2-2-|
A--0-0-0-0--0-0-0-0--0-0-0-0-|
E----------------------------|

Take back the city for yourself tonight

Guitar 1
e--0-0-0-0--0-0-0-0--0-0-0-0-|
B--3-3-3-3--3-3-3-3--3-3-3-3-|
G--0-0-0-0--0-0-0-0--0-0-0-0-|
D--2-2-2-2--2-2-2-2--2-2-2-2-|
A--0-0-0-0--0-0-0-0--0-0-0-0-|
E----------------------------|

Woah!


Guitar 1
e--0-0-0-0--0-0-0-0--0-0-0-0-|
B--3-3-3-3--3-3-3-3--0-0-0-0-|
G--0-0-0-0--0-0-0-0--2-2-2-2-|
D--2-2-2-2--4-4-4-4--2-2-2-2-|
A--0-0-0-0--0-0-0-0--0-0-0-0-|
E----------------------------|

God knows you've put your life into its hands

Guitar 1
e--0-0-0-0--0-0-0-0--0-0-0-0-|
B--3-3-3-3--3-3-3-3--0-0-0-0-|
G--0-0-0-0--0-0-0-0--2-2-2-2-|
D--2-2-2-2--4-4-4-4--2-2-2-2-|
A--0-0-0-0--0-0-0-0--0-0-0-0-|
E----------------------------|

And its both cradled you and crushed

Guitar 1
e--0-0-0-0--0-0-0-0--0-0-0-0-|
B--3-3-3-3--3-3-3-3--0-0-0-0-|
G--0-0-0-0--0-0-0-0--2-2-2-2-|
D--2-2-2-2--4-4-4-4--2-2-2-2-|
A--0-0-0-0--0-0-0-0--0-0-0-0-|
E----------------------------|

But now it's time to make your own demands

Guitar 1
e--0-0-0-0--0-0-0-0--0-0-0-0-|
B--3-3-3-3--3-3-3-3--3-3-3-3-|
G--0-0-0-0--0-0-0-0--0-0-0-0-|
D--2-2-2-2--2-2-2-2--2-2-2-2-|
A--0-0-0-0--0-0-0-0--0-0-0-0-|
E----------------------------|

Woah!


Guitar 1
e--0-0-0-0--0-0-0-0--0-0-0-0-|
B--3-3-3-3--3-3-3-3--0-0-0-0-|
G--0-0-0-0--0-0-0-0--2-2-2-2-|
D--2-2-2-2--4-4-4-4--2-2-2-2-|
A--0-0-0-0--0-0-0-0--0-0-0-0-|
E----------------------------|

All these years later and it's killing me

Guitar 1
e--0-0-0-0--0-0-0-0--0-0-0-0-|
B--3-3-3-3--3-3-3-3--0-0-0-0-|
G--0-0-0-0--0-0-0-0--2-2-2-2-|
D--2-2-2-2--4-4-4-4--2-2-2-2-|
A--0-0-0-0--0-0-0-0--0-0-0-0-|
E----------------------------|

Your broken records and words

Guitar 1
e--0-0-0-0--0-0-0-0--0-0-0-0-|
B--3-3-3-3--3-3-3-3--0-0-0-0-|
G--0-0-0-0--0-0-0-0--2-2-2-2-|
D--2-2-2-2--4-4-4-4--2-2-2-2-|
A--0-0-0-0--0-0-0-0--0-0-0-0-|
E----------------------------|

10 thousand craters where it all should be

Guitar 1
e--0-0-0-0--0-0-0-0--0-0-0-0-|
B--3-3-3-3--3-3-3-3--3-3-3-3-|
G--0-0-0-0--0-0-0-0--0-0-0-0-|
D--2-2-2-2--2-2-2-2--2-2-2-2-|
A--0-0-0-0--0-0-0-0--0-0-0-0-|
E----------------------------|

Woah!


Guitar 1
e--0-0-0-0--0-0-0-0--0-0-0-0-|
B--3-3-3-3--3-3-3-3--0-0-0-0-|
G--0-0-0-0--0-0-0-0--2-2-2-2-|
D--2-2-2-2--4-4-4-4--2-2-2-2-|
A--0-0-0-0--0-0-0-0--0-0-0-0-|
E----------------------------|

No need to put your words into my mouth

Guitar 1
e--0-0-0-0--0-0-0-0--0-0-0-0-|
B--3-3-3-3--3-3-3-3--0-0-0-0-|
G--0-0-0-0--0-0-0-0--2-2-2-2-|
D--2-2-2-2--4-4-4-4--2-2-2-2-|
A--0-0-0-0--0-0-0-0--0-0-0-0-|
E----------------------------|

Don't need convincing at all

Guitar 1
e--0-0-0-0--0-0-0-0--0-0-0-0-|
B--3-3-3-3--3-3-3-3--0-0-0-0-|
G--0-0-0-0--0-0-0-0--2-2-2-2-|
D--2-2-2-2--4-4-4-4--2-2-2-2-|
A--0-0-0-0--0-0-0-0--0-0-0-0-|
E----------------------------|

I love this place enough to have no doubt

Guitar 1
e--0-0-0-0--0-0-0-0--0-0-0-0-|
B--3-3-3-3--3-3-3-3--3-3-3-3-|
G--0-0-0-0--0-0-0-0--0-0-0-0-|
D--2-2-2-2--2-2-2-2--2-2-2-2-|
A--0-0-0-0--0-0-0-0--0-0-0-0-|
E----------------------------|

Woah!


Pre-Chorus:

Guitar 1; Turn on medium distortion
e-------------------------------------|
B-------------------------------------|
G--------------------7-7-7-7----------|
D--7-7-7-7--5-5-5-5--7-7-7-7--3-3-3-3-|
A--7-7-7-7--5-5-5-5--5-5-5-5--3-3-3-3-|
E--5-5-5-5--3-3-3-3-----------1-1-1-1-|


Guitar 2
e-------------------------------------|
B-------------------------------------|
G--------------------8-8-8-8----------|
D--8-8-8-8--6-6-6-6--8-8-8-8--4-4-4-4-|
A--8-8-8-8--6-6-6-6--6-6-6-6--4-4-4-4-|
E--6-6-6-6--4-4-4-4-----------2-2-2-2-|

It's a mess, It's a start, It's a full work of art

Guitar 1
e------------------------------------------|
B------------------------------------------|
G--------------------7-7-7-7---------------|
D--7-7-7-7--5-5-5-5--7-7-7-7--3-3-3--3-3-3-|
A--7-7-7-7--5-5-5-5--5-5-5-5--3-3-3--3-3-3-|
E--5-5-5-5--3-3-3-3-----------1-1-1--1-3-3-|

Guitar 2
e------------------------------------------|
B------------------------------------------|
G--------------------8-8-8-8---------------|
D--8-8-8-8--6-6-6-6--8-8-8-8--4-4-4--4-4-4-|
A--8-8-8-8--6-6-6-6--6-6-6-6--4-4-4--4-4-4-|
E--6-6-6-6--4-4-4-4-----------2-2-2--2-2-2-|

Your city your call, Every crack every wall

Guitar 1
e-------------------------------------|
B-------------------------------------|
G--------------------7-7-7-7----------|
D--7-7-7-7--5-5-5-5--7-7-7-7--3-3-3-3-|
A--7-7-7-7--5-5-5-5--5-5-5-5--3-3-3-3-|
E--5-5-5-5--3-3-3-3-----------1-1-1-1-|

Guitar 2
e--6-6-6-6-6-6-6-6-6-6-6-6-6-8-8-8-|
B--6-6-6-6-6-6-6-6-6-6-6-6-6-8-8-8-|
G----------------------------------|
D----------------------------------|
A----------------------------------|
E----------------------------------| (x2)

Pick a side, Pick a fight, get your epitaph right

Guitar 1
e------------------------------------------|
B------------------------------------------|
G--------------------7-7-7-7---------------|
D--7-7-7-7--5-5-5-5--7-7-7-7--3-3-3--3-3-3-|
A--7-7-7-7--5-5-5-5--5-5-5-5--3-3-3--3-3-3-|
E--5-5-5-5--3-3-3-3-----------1-1-1--1-1-1-|

Guitar 2
e--6-6-6-6-6-6-6-6-6-6-6-6-6-8-8-8-|
B--6-6-6-6-6-6-6-6-6-6-6-6-6-8-8-8-|
G----------------------------------|
D----------------------------------|
A----------------------------------|
E----------------------------------| (x2)

You can sing, til you drop, cos the fun just never stops

Chorus:

Guitar 1&2
A5*
I love this city tonight
C5**
I love this city always
A5*
It bares its teeth like a light
C5**
And spits me out after days

*6th fret powerchord for guitar 2 normal for guitar 1
**9th fret powerchord for guitar 2 normal for guitar 1

Guitar 1
A5

Guitar 2

e-----------------------|
B-----------------------|
G--------------------10-|
D--12-12-12-12-10-10----|
A-----------------------|
E-----------------------|
But we're all gluttons for it

Guitar 1
C5

Guitar 2
e----------------------|
B----------------------|
G----------------------|
D--11-11-11-11-10-8-10-|
A----------------------|
E----------------------|

We know its wrong and its right

Guitar 1
A5

Guitar 2
e-----------------------|
B-----------------------|
G--------------------10-|
D--12-12-12-12-10-10----|
A-----------------------|
E-----------------------|

For every time its been hit

Guitar 1
C5

Guitar 2
e----------------------|
B----------------------|
G----------------------|
D--11-11-11-11-10-8-10-|
A----------------------|
E----------------------|

Take back the city tonight

Solo:

Guitar 1
e--0-0-0-0--0-0-0-0--0-0-0-0--|
B--3-3-3-3--3-3-3-3--0-0-0-0--|
G--0-0-0-0--0-0-0-0--2-2-2-2--|
D--2-2-2-2--4-4-4-4--2-2-2-2--|
A--0-0-0-0--0-0-0-0--0-0-0-0--|
E-----------------------------|  (x2)

Guitar 2
e--------------|
B--------------|
G--10--10-8----|
D-----------8--|
A--------------|
E--------------| (Then Improvise a small part. I play this:)

e------------------11-11-|
B------------------11-11-|
G----------8h10p8--------|
D--10-10b----------------|
A------------------------|
E------------------------|

Verse 2:

Turn off distortion

Guitar 1
e--0-0-0-0--0-0-0-0--0-0-0-0-|
B--3-3-3-3--3-3-3-3--0-0-0-0-|
G--0-0-0-0--0-0-0-0--2-2-2-2-|
D--2-2-2-2--4-4-4-4--2-2-2-2-|
A--0-0-0-0--0-0-0-0--0-0-0-0-|
E----------------------------|

Tell me you never wanted more than this

e--0-0-0-0--0-0-0-0--0-0-0-0-|
B--3-3-3-3--3-3-3-3--0-0-0-0-|
G--0-0-0-0--0-0-0-0--2-2-2-2-|
D--2-2-2-2--4-4-4-4--2-2-2-2-|
A--0-0-0-0--0-0-0-0--0-0-0-0-|
E----------------------------|

And I will stop talking right now

e--0-0-0-0--0-0-0-0--0-0-0-0-|
B--3-3-3-3--3-3-3-3--0-0-0-0-|
G--0-0-0-0--0-0-0-0--2-2-2-2-|
D--2-2-2-2--4-4-4-4--2-2-2-2-|
A--0-0-0-0--0-0-0-0--0-0-0-0-|
E----------------------------|

One perfect partner one eternal kiss

e--0-0-0-0--0-0-0-0--0-0-0-0-|
B--3-3-3-3--3-3-3-3--3-3-3-3-|
G--0-0-0-0--0-0-0-0--0-0-0-0-|
D--2-2-2-2--2-2-2-2--2-2-2-2-|
A--0-0-0-0--0-0-0-0--0-0-0-0-|
E----------------------------|

Woah!

e--0-0-0-0--0-0-0-0--0-0-0-0-|
B--3-3-3-3--3-3-3-3--0-0-0-0-|
G--0-0-0-0--0-0-0-0--0-0-0-0-|
D--2-2-2-2--4-4-4-4--2-2-2-2-|
A--0-0-0-0--0-0-0-0--0-0-0-0-|
E----------------------------|

Take back the city for yourself tonight

e--0-0-0-0--0-0-0-0--0-0-0-0-|
B--3-3-3-3--3-3-3-3--0-0-0-0-|
G--0-0-0-0--0-0-0-0--2-2-2-2-|
D--2-2-2-2--4-4-4-4--2-2-2-2-|
A--0-0-0-0--0-0-0-0--0-0-0-0-|
E----------------------------|

I'll take the city for me

e--0-0-0-0--0-0-0-0--0-0-0-0-|
B--3-3-3-3--3-3-3-3--0-0-0-0-|
G--0-0-0-0--0-0-0-0--2-2-2-2-|
D--2-2-2-2--4-4-4-4--2-2-2-2-|
A--0-0-0-0--0-0-0-0--0-0-0-0-|
E----------------------------|

Take back the city for yourself tonight

e--0-0-0-0--0-0-0-0--0-0-0-0-|
B--3-3-3-3--3-3-3-3--3-3-3-3-|
G--0-0-0-0--0-0-0-0--0-0-0-0-|
A--2-2-2-2--2-2-2-2--2-2-2-2-|
D--0-0-0-0--0-0-0-0--0-0-0-0-|
E----------------------------|

Woah!


Guitar 1 distortion back on

Pre-Chorus (same as previous)

Chorus (x2)

Outro:

Guitar 1

A5                       C5
I love this city tonight

I love this city always

FIN
Suggest correction
comments
print report bad tab
guest
You may want to rate the tab now too:
select rating
Wanna post a correction for this tab? Suggest correction