Oops, an error
Loading. Please wait.

The Golden Floor Tab

version 2
version 2

Whole song

2,716 views 12 this week
no commentswrite comment
1 2 3 4 5
excellent!
x 7
add to favorites
launch autoscroll
font size
0
reset
how to read this tab
guitar tuner
Autoscroll
slow
fast
+/-
esc
set tempo
stop
Help us to improve Ultimate-Guitar.com Take our survey!
×
Author
-------------------------------------------------------------------------------
			     THE GOLDEN FLOOR - Snow Patrol
-------------------------------------------------------------------------------
Tabbed by: winniethejedi
Email:

Tuning: Standard

Guitar 1
Intro
e------------------------------------------------------------------|
B-2--2--0-------0-------2---0---0--2--2--0-------0-----------------|
G------------------------------------------------------------------|
D------------------------------------------------------------------|
A-2--2-----------------------------2--2----------------------------|
E----------2--2---3---3---3---3-------------2--2---3---------------|

Verse
e------------------------------------------------------------------|
B-2--2--0-------0-------2---0---0--2--2--0-------0-------2---0---0-|
G------------------------------------------------------------------|
D------------------------------------------------------------------|
A-2--2-----------------------------2--2----------------------------|
E----------2--2---3---3---3---3-------------2--2---3---3---3---3---|

Chorus
e------------------------------------------------------------------|
B------------------------------------------------------------------|
G------------------------------------------------------------------|
D---2---2---2---2---2---2---2---2---0---0---0---0---0---0---0---0--|
A-0---0---0---0---0---0---0---0------------------------------------|
E---------------------------------3---3---3---3---3---3---3---3----|

Guitar 2
Verse A
e--------9--------------------------------9------------------------|
B------9--------------------------------9--------------------------|
G----9--------------------------------9----------------------------|
D-11-------------------------------11------------------------------|
A------------------------------------------------------------------|
E------------------------------------------------------------------|

Verse B
e--------9--------------7-----------------9--------------7---------|
B------9--------------7-----------------9--------------7-----------|
G----9--------------7-----------------9--------------7-------------|
D-11--------------9----------------11--------------9---------------|
A------------------------------------------------------------------|
E------------------------------------------------------------------|

Guitar 1	      Guitar 2
Intro
Verse x2
Verse x2	      Verse A x2
Verse x4	      Verse B x4
Chorus x2
Verse x4	      Verse B x4
Chorus x4
Verse		         Verse B
Intro		         Verse B

************************************

| /   slide up
| \   slide down
| h   hammer-on
| p   pull-off
| ~   vibrato
| +   harmonic
| x   Mute note
| b   Bend
| pb  Pre-bend
| br  Bend release
| pbr Pre-bend release
| brb Bend release bend

************************************
Suggest correction
comments
print report bad tab
guest
You may want to rate the tab now too:
select rating
Please do not post tabs as comments. Select "correction" instead!